Guitaretab - guitar tabs
Song name
# A B C D E F G H I J K L M N O P Q R S T U V W X Y Z

Anti-nowhere League - Rocker tab

Whole Song

Part One
E--------|--------|--------|--------|--------|--------|--------|---------|
B--------|--------|--------|--------|--------|--------|--------|---------|
G-7-7--5-|-7-7--5-|-7-7--5-|-7-7--5-|-7-7--5-|-7-7--5-|-7-7--5-|---7-7-7-|
D-7-7--5-|-7-7--5-|-7-7--5-|-7-7--5-|-7-7--5-|-7-7--5-|-7-7--5-|---7-7-7-|
A-5-5--3-|-5-5--3-|-5-5--3-|-5-5--3-|-5-5--3-|-5-5--3-|-5-5--3-|---5-5-5-|
E--------|--------|--------|--------|--------|--------|--------|---------|
[ Tab from: http://www.guitaretab.com/a/anti-nowhere-league/171437.html ]
Part Two
E--------|--------|------------------|--------|--------|------------------|
B--------|--------|------------------|--------|--------|------------------|
G--------|--------|------------------|--------|--------|------------------|
D-9-9--7-|-9-9--7-|-9-9--4-4-4-4-4-4-|-9-9--7-|-9-9--7-|-9-9--4-4-4-4-4-4-|
A-9-9--7-|-9-9--7-|-9-9--4-4-4-4-4-4-|-9-9--7-|-9-9--7-|-9-9--4-4-4-4-4-4-|
E-7-7--5-|-7-7--5-|-7-7--2-2-2-2-2-2-|-7-7--5-|-7-7--5-|-7-7--2-2-2-2-2-2-|

****************************************************************************
I wish there was more to this song, but nope. Just get the strum patterns and part one 
two switch off one after another
Related for Rocker tab