Song name
# A B C D E F G H I J K L M N O P Q R S T U V W X Y Z

Anti-nowhere League - Never Drink Alone tab

-------------------------------------------------------------------------------
	              Never Drink Alone - Anti-Nowhere Leauge
-------------------------------------------------------------------------------
Tabbed by: Fyllekajja
Email: Slayer_reyalS@hotmail.com

Tuning: Standard EADGBE

The amount of strikes per note may be wrong, but the tones is right.

Intro
e|---------------------------------------------------------------------------|
B|---------------------------------------------------------------------------|
G|---------------------------------------------------------------------------|
D|----76--6-5-23~2-----------------------------------------------------------|
A|5-78---7---------5---------------------------------------------------------|
E|---------------------------------------------------------------------------|

Vers
e|---------------------------------------------------------------------------|
B|---------------------------------------------------------------------------|
G|---------------------------------------------------------------------------|
D|-7-77777-----------------------------7-77777-------------------------------|
A|-5-55555--9-99999--5-55555--7-77777--5-55555-------------------------------|
E|----------7-77777--3-33333--5-55555----------------------------------------|

Bridge
e|---------------------------------------------------------------------------|
B|---------------------------------------------------------------------------|
G|---------------------------------------------------------------------------|
D|---------------------------------------------------------------------------|
A|9-999999-5-555555-9-999999-5-555555-9-999999-5-555555-7-777777-7-777777----|
E|7-777777-3-333333-7-777777-3-333333-7-777777-3-333333-5-555555-5-555555----|

Part 1 Refr
e|---------------------------------------------------------------------------|
B|---------------------------------------------------------------------------|
G|---------------------------------------------------------------------------| the first time they
D|--7-777777----------------------------7-777777-----------------------------| play the refr
A|--5-555555-7-777777-9-999999-5-555555-5-555555-7-777777-5-5555555----------| they use the intro.
E|-----------5-555555-7-777777-3-333333----------5-555555-3-3333333----------| X2



Lyrics
Sorry mate, we donít serve youíre kind here!

How many drinks can I force down my neck, before I forget who I am?
And how many beers must I drink with these queers, before I can prove Iím a man?

Letís have a night of drinking, stop all of your thinking,
Forget about the things to do, letís have another beer or two,
Hey this oneís got itís name of you!

And how many bars, must I crawl from the stars, before I know I am stoned?
And how many glasses, do I raise to the brasses, and again I walk home all alone?

Well I will go on drinking as my world goes on sinking, but I will never drink alone!

Letís have a night of drinking, stop all of your thinking,
Forget about the things to do, letís have another beer or two,
Hey this oneís got itís name on you!

How many chance, will it take to piss my pants, or fall in the heat upon the floor
And how many fights, can I take on tonight, until I canít fight anymore?

Letís have a night of drinking, stop all of your thinking,
Forget about the things to do, letís have another beer or two,
Hey this oneís got itís name of you!

We will go on drinking as our world goes on sinking, and we will never drink alone.
I just go on drinking as my world goes on sinking, and I will never drink alone


************************************

| ~   vibrato

************************************
Tap to rate this tab
# A B C D E F G H I J K L M N O P Q R S T U V W X Y Z