Song name
# A B C D E F G H I J K L M N O P Q R S T U V W X Y Z

Anti-nowhere League - We Are The League tab

Anti Nowhere League
We Are The League


 Intro:
|------------------------------------------------------|
|------------------------------------------------------|
|------------------------------------------------------|
|------------------------------------------------------|
|-3-33-33--5-55-55--7-77-77--9-99-99--10-1010-1010-12~-|
|-1-11-11--3-33-33--5-55-55--7-77-77--8--8-8--8-8--10~-|


 Verse:
|---------------------------------|
|---------------------------------|
|---------------------------------|  x2
|----------7--------------5-------|
|-7-77-77--5--7--5-55-55--3--5----|
|-5-55-55-----5--3-33-33-----3----|

|-----------------------------------|
|-----------------------------------|
|-----------------------------------|
|-----------------------------------| x2
|-7-77-77-7-77-77--5-55-55-5-55-55--|
|-5-55-55-5-55-55--3-33-33-3-33-33--|


 Chorus:
|--------------------|
|--------------------|
|--------------------|
|--------------------|
|-3--5--7--9--10-12--|
|-1--3--5--7--8--10--|



Thats pretty much it, nice and easy =]
:Mosh101:
Tap to rate this tab
# A B C D E F G H I J K L M N O P Q R S T U V W X Y Z