Song name
# A B C D E F G H I J K L M N O P Q R S T U V W X Y Z

Antidote - Punkrocker tab

-----------------------------------------------------------------------------
                          Punkrocker - Antidote
-----------------------------------------------------------------------------

Tabbed by: Sudor de Huevos Kevin (Guate-punx)
kevinsk8punk@hotmail.com
http://www.911tabs.com/

Guitar tab.

Intro (palm-muted)
e|-----------------------------------------------------------------------|
B|-----------------------------------------------------------------------|
G|-----------------------------------------------------------------------|
D|---10----10-10-10-10-10-10-10-10---------------------------------------|
A|---10----10-10-10-10-10-10-10-10---------------------------------------|
E|---8-----8--8--8--8--8--8--8--8----------------------------------------|
         PM.......................
Verse
e|-----------------------------------------------------------------------|
B|-----------------------------------------------------------------------|
G|----------------10-10-10-10---6-6-6-6----8-8-8-8-----------------------|
D|--10-10-10-10---10-10-10-10---6-6-6-6----8-8-8-8-----------------------| X6
A|--10-10-10-10---8--8--8--8----4-4-4-4----6-6-6-6-----------------------|
E|--8--8--8--8-----------------------------------------------------------|

Chorus
e|-----------------------------------------------------------------------|
B|-----------------------------------------------------------------------|
G|---10-10-10-10-10-10-10-10-----6-6-6-6-----8-8-8-8---------------------|
D|---10-10-10-10-10-10-10-10-----6-6-6-6-----8-8-8-8---------------------| X4
A|---8--8--8--8--8--8--8--8------4-4-4-4-----6-6-6-6---------------------|
E|-----------------------------------------------------------------------|

Solo
e|-----------------------------------------------------------------------|
B|-----------------------------------------------------------------------|
G|-----------------------------------------------------------------------|
D|-----------------------------------------------------------------------|
A|-----------8-8-8-8-8-8-11-10-8-10-10-10-10-----------------------------|
E|--8-8-8-8--------------------------------------------------------------|

Tap to rate this tab
 
# A B C D E F G H I J K L M N O P Q R S T U V W X Y Z