Song name
# A B C D E F G H I J K L M N O P Q R S T U V W X Y Z

Antimatter - Angelic tab

================================================================================
                              A N T I M A T T E R

                                       -

                                 A N G E L I C
================================================================================


                                     SAVIOUR
                        (c)  Prophecy Productions - 2002
                        http://www.antimatteronline.com/


                 Standard Tuning with a Capo on the First Fret
                                   E A D G B E

                             F A# D# G# C F with Capo

                                 Tempo = 110 BPM
                              Time Signature = 4/4



                          -----------------------------
                                 Transcribed by

                                 PADDY MCMULLAN
                           stinkypoohpants@yahoo.co.uk

                                   Version 1.0
                                11th October 2009
                             -----------------------

                             Tablature Symbols Used:


 ( )       -  Ghost Note/Tied Note/Implied Note




  The notes are relative to the capo, i.e. the 1st fret is in fact the 2nd fret
   of the guitar.  The easiest way to play this song is to simply hold the Bm
       chord, keeping your third and fourth fingers stationary throughout.


       Bm
 ||---------||
 ||----0----||
 ||----4----||
 ||----4----||
 ||----2----||
 ||---------||
       x
       4
       3
       1

================================================================================
Section 1: Acoustic Guitar with Capo on 1st Fret (Play twice)
================================================================================


* Let notes ring wherever possible *


||-------------------------|--------------------0-----|
||-----------0-------------|-----------0-----------0--|
||--4-----4-------4-----4--|--------4-----4-----------|
||-----4-------------4-----|-----4-----------4--------|
||--2----------------------|--------------------------|
||-------------------------|--3-----------------------|

                           |__________________________[1]
|--------------------------|--------------------------| |
|-----------0--------0-----|-----------0--------0-----| |
|--------4-----4--------4--|--------4-----4--------4--|*|
|-----4-----------4--------|-----4-----------4--------|*|
|--------------------------|--------------------------| |
|--0-----------------------|--3-----------------------| |

|_______________________[2]
|--------------0---------||
|-----------0------------||
|--------4---------------||
|-----4------------------||
|------------------------||
|--3------------------0--||



================================================================================
Section 2: Play once
================================================================================


The first four bars are all you really need for this section, but the variations
are tabbed in full should you want to match the CD track note-for-note.  Play
the entire section once through, otherwise just play the first four bars 4 times


  1                         2
||-------------------------|--------------------0-----|
||-----------0-------------|-----------0-----------0--|
||--------4-------4-----4--|--------4-----4-----------|
||-----4-------------4-----|-----4-----------4--------|
||--2----------------------|--------------------------|
||-------------------------|--3-----------------------|

 3                          4
|--------------------------|--------------------0-----|
|-----------0--------0-----|-----------0-----------0--|
|--------4-----4--------4--|--------4-----4-----------|
|-----4-----------4--------|-----4-----------4--------|
|--------------------------|--------------------------|
|--0-----------------------|--3-----------------------|

 5                          6
|--------------------------|--------------------0-----|
|-----------0--------0-----|-----------0-----------0--|
|--------4-----4--------4--|--------4-----4-----------|
|-----4-----------4--------|-----4-----------4--------|
|--2-----------------------|--------------------------|
|--------------------------|--3-----------------------|

 7                          8
|--------------------------|--------------------0-----|
|-----------0--------0-----|-----------0-----------0--|
|--------4-----4--------4--|--------4-----4-----------|
|-----4-----------4--------|-----4-----------4--------|
|--------------------------|--------------------------|
|--0-----------------------|--3-----------------------|

 9                         10
|-------------------------|--------------------0-----|
|-----------0-------------|-----------0-----------0--|
|--------4-------4-----4--|--------4-----4-----------|
|-----4-------------4-----|-----4-----------4--------|
|--2----------------------|--------------------------|
|-------------------------|--3-----------------------|

 11                         12
|--------------------------|--------------------0-----|
|-----------0--------0-----|-----------0-----------0--|
|--------4-----4--------4--|--------4-----4-----------|
|-----4-----------4--------|-----4-----------4--------|
|--------------------------|--------------------------|
|--0-----------------------|--3-----------------------|

 13                         14
|--------------------------|--------------------------|
|-----------0--------0-----|-----------0--------0-----|
|--------4-----4--------4--|--------4-----4--------4--|
|-----4-----------4--------|-----4-----------4--------|
|--2-----------------------|--------------------------|
|--------------------------|--3-----------------------|

 15                         16                    |_3_| (Rake chord)
|--------------------------|--------------0-------0---||
|-----------0--------0-----|-----------0-------0---0--||
|--------4-----4--------4--|--------4---------------4-||
|-----4-----------4--------|-----4--------------------||
|--------------------------|--------------------------||
|--0-----------------------|--3-----------------------||



================================================================================
Section 3: Play once
================================================================================


||--------------------------|--------------0-----------|
||--------0--------0--------|-----0-----------0-----0--|
||--------------------------|--4-----4-----------------|
||-----4--------4--------4--|-----------4--------4-----|
||--------------------------|--------------------------|
||--0--------2--------3-----|--------------------------|


|--------------------------|-------------------||
|--------0--------0--------|-------------------||
|--------------------------|--4----------------||
|-----4--------4--------4--|-------------------||
|--------------------------|-------------------||
|--0--------2--------3-----|-------------------||



================================================================================
Play Section 2 once with the following variations (or the first 4 bars 4 times)
================================================================================


  1                          2
||--------------------------|--------------------0-----|
||-----------0--------0-----|-----------0-----------0--|
||--------4-----4--------4--|--------4-----4-----------|
||-----4-----------4--------|-----4-----------4--------|
||--2-----------------------|--------------------------|
||--------------------------|--3-----------------------|

 3                          4
|--------------------------|--------------------------|
|-----------0--------0-----|-----------0--------0-----|
|--------4-----4--------4--|--------4-----4--------4--|
|-----4-----------4--------|-----4-----------4--------|
|--------------------------|--------------------------|
|--0-----------------------|--3-----------------------|

 5                          6
|--------------------0-----|--------------------0-----|
|-----------0-----------0--|-----------0-----------0--|
|--------4-----4-----------|--------4-----4-----------|
|-----4-----------4--------|-----4-----------4--------|
|--2-----------------------|--------------------------|
|--------------------------|--3-----------------------|

 7                          8
|--------------------------|-------------------------|
|-----------0--------0-----|-----------0--------0----|
|--------4-----4--------4--|--------4-----4----------|
|-----4-----------4--------|-----4-----------4-------|
|--------------------------|-------------------------|
|--0-----------------------|--3----------------------|

 9                          10
|--------------------0-----|--------------------0-----|
|-----------0-----------0--|-----------0-----------0--|
|--------4-----4-----------|--------4-----4-----------|
|-----4-----------4--------|-----4-----------4--------|
|--2-----------------------|--------------------------|
|--------------------------|--3-----------------------|

 11                         12
|--------------------------|--------------------0-----|
|-----------0--------0-----|-----------0-----------0--|
|--------4-----4--------4--|--------4-----4-----------|
|-----4-----------4--------|-----4-----------4--------|
|--------------------------|--------------------------|
|--0-----------------------|--3-----------------------|

 13                         14
|--------------------0-----|--------------------0-----|
|-----------0-----------0--|-----------0-----------0--|
|--------4-----4-----------|--------4-----4-----------|
|-----4-----------4--------|-----4-----------4--------|
|--2-----------------------|--------------------------|
|--------------------------|--3-----------------------|

 15                         16                   |_3_| (Rake chord)
|--------------------------|--------------0------0---||
|-----------0--------0-----|-----------0----------0--||
|--------4-----4--------4--|--------4--------------4-||
|-----4-----------4--------|-----4-------------------||
|--------------------------|-------------------------||
|--0-----------------------|--3----------------------||



================================================================================
Section 4: Play once
================================================================================


||-------------------------|--------------0-----------|
||-------0--------0--------|-----0-----------0-----0--|
||-------------------------|--4-----4-----------------|
||-------------4--------4--|-----------4--------4-----|
||-------------------------|--------------------------|
||--0-------2--------3-----|--------------------------|


|--------------------------|--------------0-----------|
|--------0--------0--------|-----0-----------0-----0--|
|--------------------------|--4-----4-----------------|
|-----4--------4--------4--|-----------4--------4-----|
|--------------------------|--------------------------|
|--0--------2--------3-----|--------------------------|


|--------------------------|--------------0-----------|
|--------0--------0--------|-----0-----------0-----0--|
|--------------------------|--4-----4-----------------|
|-----4--------4--------4--|-----------4--------4-----|
|--------------------------|--------------------------|
|--0--------2--------3-----|--------------------------|


|-------------------------|-------------------||
|--------0--------0-------|-------------------||
|-------------------------|-------------------||
|-----4--------4----------|-------------------||
|-------------------------|-------------------||
|--0--------2--------3----|--(3)--------------||



================================================================================
End
================================================================================


Tab summary:        Section 1 x 2
                    Section 2 x 1
                    Section 3 x 1
                    Section 2 x 1
                    Section 4
                    
                    END
Tap to rate this tab
# A B C D E F G H I J K L M N O P Q R S T U V W X Y Z