Song name
# A B C D E F G H I J K L M N O P Q R S T U V W X Y Z

Antimatter - Conspire tab

Song   : Conspire
Band   : Antimatter
Album  : Leaving Eden
Tab    : Jo Lefebure
Tuning : Standard

Verses: (tip: use your thumb for the bass notes on the low e-string)

e|---------0------2------0-----------------||----------0------2------0-----------------||
b|--3---------------------------3----------||--3----------------------------3----------||
g|----4------4------4------4------4---4---o||-----4------4------4------4------4---4---o||
d|------5------5------5------5------5-----o||-------4------4------4------4------4-----o||
a|-----------------------------------------||--2---------------------------------------||
e|--3--------------------------------------||------------------------------------------||


Chorus:

e|---------0------|--2-----2------||-----------0------2------0-----------------||
b|--3-------------|--3---3---3----||----3---------------------------3----------||
g|----4------4----|----2-------2--||o-----4------4------4------4------4---4---o||
d|------5------5--|--0------------||o-------4------4------4------4------4-----o||
a|----------------|---------------||----2--------------------------------------||
e|--3-------------|---------------||-------------------------------------------||
 ...spire           ...hold             ...down

e|---------0----------||-----------0------2------0-----------------||
b|--3--------------3--||----3---------------------------3----------||
g|----4------4---4----||o-----4------4------4------4------4---4---o||
d|------5------5------||o-------4------4------4------4------4-----o||
a|--------------------||----2--------------------------------------||
e|--3-----------------||-------------------------------------------||
 ...spire                   ...hold

e|---------0------|--2-----2------||-----------0------2------0-----------------||
b|--3-------------|--3---3---3----||----3---------------------------3----------||
g|----4------4----|----2-------2--||o-----4------4------4------4------4---4---o||
d|------5------5--|--0------------||o-------4------4------4------4------4-----o||
a|----------------|---------------||----2--------------------------------------||
e|--3-------------|---------------||-------------------------------------------||
 ...spire           ...hold             ...down


e|----------2--------||-----------0------2------0-----------------||
b|------3-----3---3--||----3---------------------------3----------||
g|----2---2-----2----||o-----4------4------4------4------4---4---o||
d|-------------------||o-------4------4------4------4------4-----o||
a|-------------------||----2--------------------------------------||
e|--2----------------||-------------------------------------------||
 ...wasted              ...dream


Bridge:

e|----------2----------------2--------|----------2----------------2--------||-----------0------2------0-----------------||
b|------3-----3---3------3-----3---3--|------3-----3---3------3-----3---3--||----3---------------------------3----------||
g|----2---2-----2------2---2-----2----|----2---2-----2------2---2-----2----||o-----4------4------4------4------4---4---o||
d|--0----------------0----------------|------------------------------------||o-------4------4------4------4------4-----o||
a|------------------------------------|------------------------------------||----2--------------------------------------||
e|------------------------------------|--2----------------2----------------||-------------------------------------------||


Lyrics:

While I lie here burning
You're encased in ice
With tainted eyes upon your tainted soul
It's no wonder I'm so cold

A terrible thing I'm learning
As tears are turned to ice
These fools will my dreaded foes
As I arrive here in this hole

Do you conspire to hold me down
Do you conspire to hold
Do you conspire to hold me down
Have I wasted a dream

Restless seas will murder me tonight
As you were peace effortlessly
The open mouths of hungry thieves
There'll be no silent empathy inside
The color or shade of hope

Do you conspire to hold me down
Do you conspire to hold
Do you conspire to hold me down
Have I wasted a dream
Tap to rate this tab
 
# A B C D E F G H I J K L M N O P Q R S T U V W X Y Z