Song name
# A B C D E F G H I J K L M N O P Q R S T U V W X Y Z

Antimobilize - Mobilized tab

Put A Capo On Third Fret...
INTRO:
--------------------------------------------------------------|
--------------------------------------------------------------|
--------------------------------------------------------------|
--------------------------------------------------------------|
-----14---xx---14---xx---14---x---9---xx---9---xx---9--x------|
-----12---xx---12---xx---12---x---7---xx---7---xx---7--x------|
                                                             >X2
--------------------------------------------------------------|
--------------------------------------------------------------|
--------------------------------------------------------------|
--------------------------------------------------------------|
-----7---xx---7---xx---7---x---9---xx---9---xx---9--x---------|
-----5---xx---5---xx---5---x---7---xx---7---xx---7--x---------|

That is about all the chords you need for the whole song...after this
intro type thing hit those chords about 6 times in a row at the same
beat too...after that (which is the chorus) you pick those to strings
...its pretty easy once you get it down...have fun :)
Tap to rate this tab
# A B C D E F G H I J K L M N O P Q R S T U V W X Y Z