Song name
# A B C D E F G H I J K L M N O P Q R S T U V W X Y Z

Antisect - Tortured And Abused tab

Antisect
Tortured and Abused

this is easy to play - there are only 2 parts.

palm mute the dotted chords.

intro/verse

  D                F#
e----------------|-----------------|
B----------------|-----------------|
G-7--7-7-7-7-7-7-|-----------------|
D-7--7-7-7-7-7-7-|-4-4-4-4-4-4-4-4-|
A-5--5-5-5-5-5-5-|-4-4-4-4-4-4-4-4-|
E----------------|-2-2-2-2-2-2-2-2-|
                   . . . . . . . .

chorus/outro

  E      G     F
e----------------|---------------|
B----------------|---------------|
G----------------|---------------|
D-2--2-2-5-5-5-3-|--3-3--3-3-3-3-|
A-2--2-2-5-5-5-3-|--3-3--3-3-3-3-|
E-0--0-0-3-3-3-1-|--1-1--1-1-1-1-|

that's basically it.

listen to the song for the exact rhythm.

http://www.antisectofficial.com/
Tap to rate this tab
# A B C D E F G H I J K L M N O P Q R S T U V W X Y Z