Song name
# A B C D E F G H I J K L M N O P Q R S T U V W X Y Z

Antiseen - Exploding Barbed Wire Deathmatch tab

Exploding Barbed Wire Deathmatch
ANTiSEEN
Album: New Blood
Tuning: Standard

Intro:(2x)

   A5                A5  D5  C5       A5                 C5      G5
E|-----------------|-----------------|-----------------|-----------------|
B|-----------------|-----------------|-----------------|-----------------|
G|-----------------|-----7---7-------|-----------------|-5---------------|
D|-7-7-7-7-7-7-7-7-|-7---7---7-------|-7-7-7-7-7-7-7-7-|-5-------5-------|
A|-7-7-7-7-7-7-7-7-|-7---5---3-------|-7-7-7-7-7-7-7-7-|-3-------5-------|
E|-5-5-5-5-5-5-5-5-|-5---------------|-5-5-5-5-5-5-5-5-|---------3-------|


Verse:(4x)

   A5                D5                G5                A5
E|-----------------|-----------------|-----------------|-----------------|
B|-----------------|-----------------|-----------------|-----------------|
G|-----------------|-7-7-7-7-7-7-7-7-|-----------------|-----------------|
D|-7-7-7-7-7-7-7-7-|-7-7-7-7-7-7-7-7-|-5-5-5-5-5-5-5-5-|-7-7-7-7-7-7-7-7-|
A|-7-7-7-7-7-7-7-7-|-5-5-5-5-5-5-5-5-|-5-5-5-5-5-5-5-5-|-7-7-7-7-7-7-7-7-|
W|-5-5-5-5-5-5-5-5-|-----------------|-3-3-3-3-3-3-3-3-|-5-5-5-5-5-5-5-5-|

- repeat intro
- repeat verse
- repeat intro (song ends on A5)

spunk87@freenet.de
steffenwoehler87@gmail.com
Tap to rate this tab
 
# A B C D E F G H I J K L M N O P Q R S T U V W X Y Z