Song name
# A B C D E F G H I J K L M N O P Q R S T U V W X Y Z

Antiskeptic - Reflections Perceptions tab

SONG: Reflections, Perceptions
ARTIST: Antiskeptic
ALBUM: Memoirs of a Common Man
TABBED BY: WILL S.

Hey guys this is a great song by one of my favourite bands, It's probably not all 100% 
but it's how I play along to the CD.

INTRO RIFF:  (Clean)
|--------------------------------------------------------------------------|
|--------------------------------------------------------------------------|
|--------------------------------------------------------------------------|
|-------6--------------------------------------------9--------9-/11-/7-----|
|---7-7---7-------7-9-------11-9------7h9h7-------7--------7---------------|
|-------------7-7-------9-9--------7-7-----h7---5-------7-5----------------|


VERSE:  (Clean)
E  B  C#m  B  A
E  B  C#m  B  A
B


CHORUS:  (Distortion/Fast Strumming)
|--------------------------------------------------------------------------|
|--------------------------------------------------------------------------|
|---999-999-666-666--------------------------------------------------------|
|---999-999-666-666-777-777-777-777-9--------------------------------------|
|---777-777-444-444-777-777-777-777-9--------------------------------------|
|--------------------555-555-555-555-7-------------------------------------|


|--------------------------------------------------------------------------|
|--------------------------------------------------------------------------|
|---999-11/8/9------666-11/8/9--------11/8/9-------------------------------|
|---999-x-/x/x-9----666-x-/x/x----777-x-/x/x-777-777-9---------------------|
|---777-9-/6/7-9----444-9-/6/7----777-9-/6/7-777-777-9---------------------|
|--------------7-------------------555--------555-555-7--------------------|


INSTRUMENTAL:   (Clean/Sustain)
E
C#m
A


SOLO:   (Heavy Distortion / Lead)
|--------------------------------------------------------------------------|
|---10-9-7----10-9-7--------7---------------7------------------------------|
|---------9---------9---9-8---9-8------9-8----9-8--------------------------|
|-------------------- ------9-----11-9-----9------11-9---------------------|
|--------------------------------------------------------------------------|
|--------------------------------------------------------------------------|


|--------------------------------------------------------------------------|
|---10-9-7----10-9-7--------7------9------11/-12/--------------------------|
|---------9---------9---9-8----9-8----9-8----------------------------------|
|-------------------- ------9------9------9--------------------------------|
|--------------------------------------------------------------------------|
|--------------------------------------------------------------------------|


OUTTRO:  (Clean)
|----------------------------------------------------------------------------------|
|----------------------------------------------------------------------------------|
|--11/8/9--11/8/9--13/11/8--13/11/8--8/9/11-8/9/11-13/14--16/14/13--16/14/13-------|
|--x-/x/x--x-/x/x---x/-x/x---x/-x/-x--x/x/x--x/x/x---x/-x---x-/x-/x---x-/x-/x------|
|--9-/6/7--9-/6/7--11/-9/6--11/-9/ 6--6/7/9--6/7/9--11/12--14/12/11--14/12/11------|
|----------------------------------------------------------------------------------|


|---------------------------------------------------------------------------------|
|---------------------------------------------------------------------------------|
|--11/13--11/13--7/9/11--7/9/11--13/14--------------------------------------------|
|--x-/x---x-/x---x/x/-x--x/x/-x---x-/x--------------------------------------------|
|--9-/11--9-/11--6/7/-9--6/7/-9--11/12--------------------------------------------|
|---------------------------------------------------------------------------------|


And that's it hope you enjoy!
Tap to rate this tab
# A B C D E F G H I J K L M N O P Q R S T U V W X Y Z