Song name
# A B C D E F G H I J K L M N O P Q R S T U V W X Y Z

Antiskeptic - Afs tab

band: antiskeptic
album:misc and b-sides
song A.f.s
standard tuning

yeah i thought i would figure this intro out cause it ROCKS SO DOES THE BAND FULLI

palm mute=*

intro
e|------------------------------------------------------------------------|
b|---------8-8-8-------6-6-6-5-5-5----------------------------------------|
g|---5-5-5-------------------------7-7-5-5-5-------------7-7-7-5-5-5-4-5--|
d|---------------7-7-7-----------------------5-5-5-7-7-7------------------|
a|------------------------------------------------------------------------|
E|------------------------------------------------------------------------|
                 * * *                       * * * * * * 

e|-------------------------------------------------------------------------|
b|--------8-8-8-------6-6-6-5-5-5------------------------------------------|
g|--5-5-5-------------------------7-7--------------------------------------|
d|--------------7-7-7------------------3-3-3-3-3-3-3-5-5-5-5-5-5-5---------|
a|-------------------------------------------------------------------------|
E|-------------------------------------------------------------------------|
                * * *                  * * * * * * * * * * * * * * 

e|----------------------------------------|----------------------|
b|----------------------------------------|----------------------|
g|--5-5-5---------------------------------|----------------------|
d|--5-5-5--5-5-5--7-7-7--3-3-3-3-3-3-(x3)-|--33333333-55555555---|
a|--3-3-3--5-5-5--7-7-7--3-3-3-3-3-3------|--33333333-55555555---|
E|---------3-3-3--5-5-5--1-1-1-1-1-1------|--11111111-33333333---|
                                             **       **


do chord bit 2 times over and thats the intro 

any comment send em to guitar_maniac_777@hotmail.com thanx dudes
Tap to rate this tab
# A B C D E F G H I J K L M N O P Q R S T U V W X Y Z