Guitaretab - guitar tabs
Song name
# A B C D E F G H I J K L M N O P Q R S T U V W X Y Z

Antiskeptic - Dancing On The Inside tab

-------------------------------------------------------------------------------
			     Dancing on the Inside - Antiskeptic
-------------------------------------------------------------------------------
Tabbed by:Leigh Mooney
Email:ldmooney@bigpond.net.au

Tuning: dropped d
INTRO
e|-------------------------------------------------------------------------|
B|-------------------------------------------------------------------------|
G|-------------------------------------------------------------------------|
D|----3--5p3-0-2-------3--5p3--0 2------2------------------2---------------|
A|0 0-------------0-0-----------------------5p3---2h3---------5p3--2h3-----|
E|----------------------------------3-3----------------3-3-----------------|
							Fade into Verse
e|------------------------------------------------|     ------|
B|------------------------------------------------|     ------|
G|-2-2---5-5---------5-5---2-2---5-5--------5-----|x 2  --2---|
D|-2-2---5-5---0-0---5-5---2-2---5-5--0-0---5--0--|     --2---|
A|-0-0---3-3---0-0---3-3---0-0---3-3--0-0---3--0--|     --0---|
E|-------------0-0--------------------0-0------0--|     ------|
[ Tab from: http://www.guitaretab.com/a/antiskeptic/78543.html ]
VERSE
e|------------------------------------|
B|---12-----10-------10----10----10---|
G|-9------9-------12----12----12------|
D|------------------------------------|
A|------------------------------------|
E|------------------------------------|


CHORUS
e|-------------------------|
B|-------------------------|
G|--------7----------------|
D|---3----7---7--------2---|
A|---3----5---7--------2---|
E|---3--------7--------2---|

PRE 2ND VERSE
e|------------------------------------|     12s\
B|---12-----10-------10----10----10---|  10
G|-9------9-------12----12----12------|  12 
D|------------------------------------|
A|------------------------------------|
E|------------------------------------|

BRIDGE - Haven't worked out the first part of it properly, this is from the lyrics
"She take this hand by near"
e|-------------------------------------------------------------7-----------|
B|-------10-9---------------10-9--------------10-9-----------8---8---------|
G|-----9------------------9-----------------9------------------------------|
D|-7-7--------10-----7-7--------10-----7-7----------10---7-7---------------|
A|-------------------------------------------------------------------------|
E|-------------------------------------------------------------------------|



| /  slide up
| \  slide down
| h  hammer-on
| p  pull-off
| ~  vibrato
| +  harmonic
| x  Mute note
===============================================================================
Related for Dancing On The Inside tab
Advertisement will be closed in 10 seconds