Song name
# A B C D E F G H I J K L M N O P Q R S T U V W X Y Z

Antiskeptic - Hello Halo tab

Antiskeptic-Hello halo
Hey, im actually a drummer but do guitaring in my spare time...which i have a lot of, 
this is my first tab so sorry if i screwed some of it up...
if ya wanna say something about my tabs email me at homie_central@hotmail.com....
Intro

eb|------------------------------------------------------------|
Bb|------------------------------------------------------------|
Gb|-----------------------------55--------55-----------77------|
Db|--22--5555--22--4444--55-77--55--5555--55--4444--77-77------| 3x
Ab|--22--------22--------55-77--33--------33--------77-55------|
Db|--22--------22--------55-77----------------------77---------|

preverse

eb|--------------------------------------    ----------------------------|
Bb|--------------------------------------    ----------------------------|
Gb|----------------7-----------------7---    ----------------------------|
Db|--22-22-22-22-5777--22-22-22-22-5777-- 2x or---22-22-22-22-57127------|
Ab|--22-22-22-22-5757--22-22-22-22-5757--    -----22-22-22-22-57127------|
Db|--22-22-22-22-57-7--22-22-22-22-57-7--    -----22-22-22-22-57127------|
                 ^
       this part is fast and pretty hard, chose which ever suits you.

        verse
eb|----------------  ------------------------------------------------------|
Bb|----------------  ------------------------------------------------------|
Gb|----------------  ------------------------------------------------------|
Db|--2~------------- -222222229999999910101010101010101212121212121212-----|
Ab|--2~---2~--3~--5~ -222222229999999910101010101010101212121212121212-----|
Db|--2~------------- -222222229999999910101010101010101212121212121212-----|


eb|----------------------------------------------------------|
Bb|----------------------------------------------------------|
Gb|----------------------------------------------------------|
Db|--222222229999999910101010101010101212121212121212--------| 2x
Ab|--222222229999999910101010101010101212121212121212--------|
Db|--222222229999999910101010101010101212121212121212--------|

eb|-------------------------------------------------------------|
Bb|-------------------------------------------------------------|
Gb|-------------------------------------------------------------|
Db|--77777777-99999999-1010101010101010-1212-1212-1212-1212-----|
Ab|--77777777-99999999-1010101010101010-1212-1212-1212-1212-----|
Db|--77777777-99999999-1010101010101010-1212-1212-1212-1212-----|
                                        ^
                              timing is a bit different.
prechorus

eb|-------------------------------------------|
Bb|-------------------------------------------|
Gb|--------16-16~------------16-16~-----------|
Db|--14~--------14~----------------14~--------| 2x
Ab|--14~----------14~----------------14~------|
Db|--14~--------------------------------------|

eb|------------------------------------------------|
Bb|------------------------------------------------|
Gb|------------------------------------------------|
Db|--22-22-22-22-22-5577--22-22-22-22-22-5577------|
Ab|--22-22-22-22-22-5577--22-22-22-22-22-5577------|
Db|--22-22-22-22-22-5577--22-22-22-22-22-5577------|

Chorus

eb|--------------------------------------------------------|
Bb|--------------------------------------------------------|
Gb|--55555555------------------------55555555--------------|
Db|--55555555-22-5555-22-4444-55-77--55555555-77777777-----|
Ab|--33333333-22------22------55-77--33333333-77777777-----|
Db|-----------22------22------55-77-----------77777777-----|


eb|---------------------------------------------------------------|
Bb|---------------------------------------------------------------|
Gb|--55555555------------------------55555555---------------------|
Db|--55555555-22-5555-22-4444-55-77--55555555-22-55722-99522------|
Ab|--33333333-22------22------55-77--33333333-22-55722-99522------|
Db|-----------22------22------55-77-----------22-55722-99522------|

eb|---------------------------------------------------|
Bb|---------------------------------------------------|
Gb|---------------------------------------------------|
Db|--22-55722-99522-22-55722-99522-22-55722-99522-----|
Ab|--22-55722-99522-22-55722-99522-22-55722-99522-----|
Db|--22-55722-99522-22-55722-99522-22-55722-99522-----|

eb|-------------------------------------|
Bb|-------------------------------------|
Gb|-----------------4-------------------|
Db|--2~-------------2------55-44-22-----|
Ab|--2~-------------22~-3~-55-55-55-----|
Db|--2~---------------------------------|
some wBar or wobble used to create effect...

eb|----------------------------------------------------------|
Bb|----------------------------------------------------------|
Gb|----------------------------------------------------------|
Db|--2xxxxxxx9xxxxxxx10xxxxxxxxxxxxxx12xxxxxxxxxxxxxx--------| 2x
Ab|--2xxxxxxx9xxxxxxx10xxxxxxxxxxxxxx12xxxxxxxxxxxxxx--------|
Db|--2xxxxxxx9xxxxxxx10xxxxxxxxxxxxxx12xxxxxxxxxxxxxx--------|

Chorus

eb|--------------------------------------------------------|
Bb|--------------------------------------------------------|
Gb|--55555555------------------------55555555--------------|
Db|--55555555-22-5555-22-4444-55-77--55555555-77777777-----|
Ab|--33333333-22------22------55-77--33333333-77777777-----|
Db|-----------22------22------55-77-----------77777777-----|


eb|---------------------------------------------------------------|
Bb|---------------------------------------------------------------|
Gb|--55555555------------------------55555555---------------------|
Db|--55555555-22-5555-22-4444-55-77--55555555-22-55722-99522------|
Ab|--33333333-22------22------55-77--33333333-22-55722-99522------|
Db|-----------22------22------55-77-----------22-55722-99522------|

eb|---------------------------------------------------|
Bb|---------------------------------------------------|
Gb|---------------------------------------------------|
Db|--22-55722-99522-22-55722-99522-22-55722-99522-----|
Ab|--22-55722-99522-22-55722-99522-22-55722-99522-----|
Db|--22-55722-99522-22-55722-99522-22-55722-99522-----|

eb|------------------------------------------------------------|
Bb|------------------------------------------------------------|
Gb|----------------7-----------------7-----------------7-------|
Db|--22-22-22-22-5777--22-22-22-22-5777--22-22-22-22-5777------|
Ab|--22-22-22-22-5757--22-22-22-22-5757--22-22-22-22-5757------|
Db|--22-22-22-22-57-7--22-22-22-22-57-7--22-22-22-22-57-7------|

eb|----------------|
Bb|----------------|
Gb|----------------|
Db|--22-22-22\-----|
Ab|--22-22-22\-----|
Db|--22-22-22\-----|

hope it helped you...
homie_central@hotmail.com!!!catchya
Tap to rate this tab
 
# A B C D E F G H I J K L M N O P Q R S T U V W X Y Z