Guitaretab - guitar tabs
Song name
# A B C D E F G H I J K L M N O P Q R S T U V W X Y Z

Antivirus - Detension tab

Chourus:

e--------------|--------------------------------------
b--------------|--------------------------------------
g--------------|--------------------------------------
d--9--2--6--4--|--------------------------------------
a--9--2--6--4--|--------------------------------------
E--7--0--4--2--|--------------------------------------
[ Tab from: http://www.guitaretab.com/a/antivirus/30146.html ]
e-----------------|------------------------------------
b-----------------|------------------------------------
g-----------------|------------------------------------
d--9---6---4---2--|------------------------------------
a--9---6---4---2--|------------------------------------
E--7---4---2---0--|------------------------------------


Well, thats the entire song 
hope you like it if you don't let me know.