Song name
# A B C D E F G H I J K L M N O P Q R S T U V W X Y Z

Antonin Dvorak - Going Home From The New World tab

----------------------------------------------------------------------------
	      Going Home From the New World - Antonin Dvorak
----------------------------------------------------------------------------


Tabbed by: Dave S. 
Email: prime-prine@hotmail.com

Tuning: Standard



     
E|---------------------|---------------------|----------------------|
B|---------1--1--------|---------------------|------------1---------|
G|--2------------------|--2------0-----------|--0------2---------2--|
D|---------------------|------------3--------|----------------------|
A|---------------------|---------------------|----------------------|
E|---------------------|---------------------|----------------------|


-------------------|---------------------|---------------------|
-------------------|---------1--1--------|---------------------|
--0----------------|--2------------------|--2------0-----------|
-------------------|---------------------|------------3--------|
-------------------|---------------------|---------------------|
-------------------|---------------------|---------------------|


----------------------|-------------------|---------1--1--------|
----------------------|-------------------|--3------------------|
--0----2----0---------|-------------------|---------------------|
-------------------3--|--3----------------|---------------------|
----------------------|-------------------|---------------------|
----------------------|-------------------|---------------------|

             
--0------------------|-------1----0---------|-------------------|
-------1----3--------|--3--------------1----|--3----------------|
---------------------|----------------------|-------------------|
---------------------|----------------------|-------------------|
---------------------|----------------------|-------------------|
---------------------|----------------------|-------------------|

  
-------1----1--------|--0------------------|-------1----0---------|
--3------------------|-------1----3--------|--3----------------1--|
---------------------|---------------------|----------------------|
---------------------|---------------------|----------------------|
---------------------|---------------------|----------------------|
---------------------|---------------------|----------------------|

         
-------------------|---------------------|---------------------|
--3----------------|---------1--1--------|---------------------|
-------------------|--2------------------|--2------0-----------|
-------------------|--3------------------|--3---------3--------|
-------------------|---------------------|---------------------|
-------------------|---------------------|---------------------|

        
----------------------|-------------------|---------------------|
------------1---------|-------------------|---------1--1--------|
--0------2---------2--|--0----------------|--2------------------|
----------------------|-------------------|---------------------|
----------------------|-------------------|---------------------|
----------------------|-------------------|---------------------|

                
--1------3--5--------|--3------1--3---------|--1----------------|
--3------5--6--------|--3---------3----3----|--1----------------|
---------------------|-----------------3----|--2----------------|
---------------------|----------------------|-------------------|
---------------------|----------------------|-------------------|
---------------------|----------------------|-------------------|


--3------1--3---------|--1----------------|-------------------|
--3---------3----3----|--1----------------|-------------------|
------------3----3----|--2----------------|-------------------|
-----------------5----|-------------------|-------------------|
----------------------|-------------------|-------------------|
----------------------|-------------------|-------------------|

| /  slide up
| \  slide down
| h  hammer-on
| p  pull-off
| ~  vibrato
| +  harmonic
| x  Mute note
===========================================================================
Tap to rate this tab
# A B C D E F G H I J K L M N O P Q R S T U V W X Y Z