Song name
# A B C D E F G H I J K L M N O P Q R S T U V W X Y Z

Antonino Di Leva - Supersense tab

Antonino Di Leva - Supersense 
This part is repeated in whole song.

Standard Tuning:
e|--------11---------10--------10---------10------|
B|------8----8-----8----8----8----8-----8----8----|
G|---10---------10---------8---------10-----------|
D|------------------------------------------------|
A|------------------------------------------------|
E|------------------------------------------------|

e|--------11---15---11----------10---------10-----|
B|------8----8----8----8------8----8-----8----8---|
G|---10--------------------10---------10----------|
D|------------------------------------------------|
A|------------------------------------------------|
E|------------------------------------------------|



by Mat2PL
Tap to rate this tab
 
# A B C D E F G H I J K L M N O P Q R S T U V W X Y Z