Antonio Lauro - Valse Venezolano No 2 tab

This is one of the more simple UIL pieces, and will help novice guitarists'
techniques for more difficult pieces. Using music alongside tablature will
make the learning of this song with dynamics more simple. 



Valse Venezolano No.2
                                            Antonio Lauro
                                            Revisado por Alirio Diaz
                                            UIL Class:1

    Allegro   BPM-120  Time signature(3 6)
                                     (4 8) 
0
E-|--------0-2-||--5---3P2-3-|-2P0---0---0-|------------|--------------|
B-|--0-2-4-----||----0-------|-----4---0---|-3----1P0---|-----1P0------|
G-|------------||*---0-------|-------------|----------2-|-1H2------3P4-|
D-|------------||*-----------|-----2-------|----2-------|--------------|
A-|------------||------------|-------------|-0----------|-0------------|
E-|------------||--0---------|-4-----------|------------|--------------|
       1 3   1     4   2 1 2   1    4         4  2 1  2   1 2 1    2 3
                               3    1

   /II----------------/      /VII-------------------/       
5
E-|----------3P2-|---2-8-----7-|-------------|---------------|--5---3p2-3-|
B-|-5P4--3-4-----|-6-----------|-10----8P7---|-------0-------|----0-------|
G-|------2-------|-------------|-----------9-|--8------2-----|----0-------|
D-|--------------|-------------|-----9-------|----10-----0-4-|------------|
A-|-2------------|-2-----------|--7----------|---------------|------------|
E-|--------------|---------7---|-------------|--7------------|--0---------|
    4 3  2 3 2     4   4   2 1    4  3 2   3    2  4   1   3    4   2 1 2  
                                                                  

                                                         /VII------------/
10
E-|-2p0---0---0-|-----------|-------------|-----------0-|---------7-9-11-|
B-|-----4---0---|-3---1p0---|-----1P0-3P1-|-0---0-2-4---|-7--8-10--------|
G-|-------------|---------2-|-1H2---------|---3---------|-8--------------|
D-|-----2-------|---2-------|-------------|-------------|-7--------------|
A-|-------------|-0---------|-0-----------|-2-----------|----------------|
E-|-4-----------|-----------|-------------|-------------|-7---------7----|
    1   4         4 2 1   2   1 2 1   3 1   2 4   1 3     2  2  4   3  4
    3   1

                      1---------------|    2---------------------|
15
E-|--12---6h7-8p7----|-(0---------0-2--||  |-(0----<12>--------0---||
B-|---------------8--|-)0---0-2-4------||  |-)0-------<12>-------0-||
G-|------------------|-(0-------------*||  |-(0----------<12>------||
D-|------------------|----------------*||  |-----------------------||
A-|------------------|-----------------||  |-----------------------||
E-|---0--------------|-----------------||  |-----------------------||
      4   1 2 3 2 3           1 3   1



18
E-||-------0------|--------0------|------0-----|--------------0-----|
B-||--3-----------|-3-------------|-3--------0-|-----<12>-------0---|
G-||*----5------5-|----5--------5-|---4--------|---------<12>-----0-|
D-||*----0--------|------0--------|---0----0---|-<12>---------------|
A-||----------0---|-----------0---|------------|--------------------|
E-||--2-----------|-2-------------|-3----------|--------------------|
      2  4      4   2  4        4   2 3       
      1             1               1


22
E-|-----------|-------------|-------------|-0-------0-2-|-5---3P2-3-|
B-|-----1-----|-0-----------|-----------0-|---0-2-4-----|---0-------|
G-|-2---------|-------2-----|-0-------0---|-------------|---0-------|
D-|---1-----1-|---1-------1-|-------2-----|-------------|-----------|
A-|-2-----2---|-----2---2---|-----2-------|-------------|-----------|
E-|-----------|-------------|---3---------|-------------|-0---------|
    3 1 1 2       1 2 3 2       4 2 3           1 3       4   1 2 1
    2

                                                         /VII--------------/
27
E-|-2P0---0---0-|-----------|-------------|-----------0-|----------7-9-11-|
B-|-----4---0---|-3---1P0---|-----1P0-3P1-|-0---0-2-4---|-7--8--10--------|
G-|-------------|---------2-|-1H2---------|---3---------|-8---------------|
D-|-----2-------|---2-------|-------------|-------------|-7---------------|
A-|-------------|-0---------|-0-----------|-2-----------|-----------------|
E-|-4-----------|-----------|-------------|-------------|-7----------7----|
    1   4         4 2 1   2   1 2 1   3 1   2 4   1 3     2  3   4   3  4
    3   1

                      1------------------------|    2-----|
32
E-|--12---6h7-8p7----|-(0----<12>----------0----||  |-)0----||
B-|---------------8--|-)0--------<12>--------0--||  |-(0----||
G-|------------------|-)0------------<12>------*||  |-(0----||  Fine.
D-|------------------|-------------------------*||  |-------||
A-|------------------|--------------------------||  |-------||
E-|---0--------------|--------------------------||  |-------||
      4   1 2 3 2 3
Tap to rate this tab
 
# A B C D E F G H I J K L M N O P Q R S T U V W X Y Z