Antonio Vivaldi - Concerto In A Minor - Rv 356 Largo tab

------------------------------------------------------------------------------
Concerto In A Minor Op 3 No 6 (RV 356), 2nd Movement - Antonio Vivaldi
------------------------------------------------------------------------------

Tabbed by: spilman
Email: corentin.beauce@free.fr

Tuning: Standard

2nd Movement
Largo

e|--------------------------------------|--------------------------------------------------------|
B|--------------------------------------|---------------------------10------------------------10-|
G|------9--10--9------10--9------9------|--9------9--10--9--10--12------10--9-------10--12-------|
D|--12------------12---------12---------|-----12-------------------------------12----------------|
A|----------------------------------12--|--------------------------------------------------------|
E|--------------------------------------|--------------------------------------------------------|

e|--------------------------------------------------------------|--------------------------------|
B|--11--10----------11--10--------------------------------------|--10-------------10-------------|
G|----------12--10----------12--10---9-----9--10--9--10--12--9--|------12--10--9------12--10--9--|
D|-------------------------------------12-----------------------|--------------------------------|
A|--------------------------------------------------------------|--------------------------------|
E|--------------------------------------------------------------|--------------------------------|

e|--------------------------------|------------------------------------------------------|
B|--------------------------------|------------------------------------------------------|
G|--------------9------9--10------|--12--10--9------12--10--9-----------------9--10--12--|
D|--12--11--12-----12---------12--|-------------12-------------12--11--9-----------------|
A|--------------------------------|---------------------------------------12-------------|
E|--------------------------------|------------------------------------------------------|

e|------------------------------------|------------------------------------------------------|
B|------------------------------------|------------------------------------------------------|
G|--10--9----------------------9--10--|--9--10--9--10--9--10--9--10--9-----------------------|
D|---------12--11--12--12--12---------|---------------------------------12--10--9tr(10)------|
A|------------------------------------|--------------------------------------------------12--|
E|------------------------------------|------------------------------------------------------|

e|------------------------------------------------------------------------------|
B|------------------------------------------------------------------------------|
G|------------------------------9--------------9--------------9-----------------|
D|----------9--11---12--11--12-----12--11--12-----12--11--12-----10--9--10--12--|
A|--12--12----------------------------------------------------------------------|
E|------------------------------------------------------------------------------|

e|-------------------------------------------------------------------------------|
B|-------------------------------------------------------------------------------|
G|----------------------9------9--10--9------9--10--9------9--10--------------9--|
D|--9tr(10)--9--10--12-----12------------12------------12---------12--11--12-----|
A|-------------------------------------------------------------------------------|
E|-------------------------------------------------------------------------------|

e|----------------------------------------------------------------------------------|
B|----------------------------------------------------------------------------------|
G|--------------------9--10--9--10--12--10--9--10--12--10--9--10--12--9------9--10--|
D|--11tr(12)--11--12-----------------------------------------------------12---------|
A|----------------------------------------------------------------------------------|
E|----------------------------------------------------------------------------------|

e|-------------------------------------------------------------------------------------|
B|---------------------------10--11--10---------------------10--11--10-----------------|
G|----------------9--10--12--------------12--10--9------12--------------12--10--9------|
D|--12tr(13)--12------------------------------------12-----------------------------12--|
A|-------------------------------------------------------------------------------------|
E|-------------------------------------------------------------------------------------|

e|------------------------------------------------------|
B|------------------------------------------------------|
G|-------------10--9----------------------------10------|
D|--11--9-------------12--11tr(12)--12--12--12------12--|
A|---------12-------------------------------------------|
E|------------------------------------------------------|

e|------------------------------------------|-------------------------------|
B|----------------------------------10------|-------------------------------|
G|--8--10--8--10--8--10--8--11--12------12--|--10--9------------------------|
D|------------------------------------------|---------12--11tr(12)--12--12--|
A|------------------------------------------|-------------------------------|
E|------------------------------------------|-------------------------------|
Tap to rate this tab
 
# A B C D E F G H I J K L M N O P Q R S T U V W X Y Z