Song name
# A B C D E F G H I J K L M N O P Q R S T U V W X Y Z

Antonio Vivaldi - 4 Seasons Winter tab

Not the greatest tab but its a very long song, sry.


-------18--16--15------------------------16--15---------------16---16--15---|
--16--------------18--16---18--------------------18--16--15-----------------|
-------------------------------15----15-------------------------------------|
----------------------------------------------------------------------------|
----------------------------------------------------------------------------|
----------------------------------------------------------------------------|

---15------15--16--18---20--22----------15--16--18--20--------------15----|
-------18-----------------------16--18------------------15--16--18--------|
--------------------------------------------------------------------------|
--------------------------------------------------------------------------|
--------------------------------------------------------------------------|
--------------------------------------------------------------------------|

--16--18---------------13--15-------------------------13--------------15----|
----------13---15--16----------16--15---------------------------------------|
------------------------------------------15--14--15------15--14--15--------|
----------------------------------------------------------------------------|
----------------------------------------------------------------------------|
----------------------------------------------------------------------------|

--------------17---------------18---------18~--18--17----------------------|
-------------------18--16--18--------------------------20--18--16----------|
--15--14--15-----------------------15------------------------------19--17--|
---------------------------------------------------------------------------|
---------------------------------------------------------------------------|
---------------------------------------------------------------------------|

---------------------------------------------------------------------------|
----15--13h14p13h14p13h14p13h14p13h14p13h14p13------------------18--16--15-|
15----------------------------------------------15--15------15-------------|
---------------------------------------------------------------------------|
---------------------------------------------------------------------------|
---------------------------------------------------------------------------|

----------------------------------------------------------------16--15------|
------------------------------------------------------------------------18--|
--17--15---17------------20--19--17----------20---20--19----15--------------|
----------------15---15--------------20--19---------------------------------|
----------------------------------------------------------------------------|
----------------------------------------------------------------------------|

----------16---16--15------------------15--16---------------15--16--18-----|
--16--15-------------------15--16--18-----------15--16--18-----------------|
-----------------------17--------------------------------------------------|
---------------------------------------------------------------------------|
---------------------------------------------------------------------------|
---------------------------------------------------------------------------|

                                                                       x2
---------15--16--18--20-----|-----------------------15--16--18--15---------|
-16--18------------------15-|-15--16--18--16-------------------------18----|
----------------------------|----------------17--15---------------------15-|
----------------------------|----------------------------------------------|
----------------------------|----------------------------------------------|
----------------------------|----------------------------------------------|

-------18--15------------------------------------------------------------|
---18----------18--16--15h16p15h16p15h16p15h16---16---16-----------------|
-------------------------------------------------------------------------|
-------------------------------------------------------------------------|
-------------------------------------------------------------------------|
-------------------------------------------------------------------------|
Tap to rate this tab
# A B C D E F G H I J K L M N O P Q R S T U V W X Y Z