Song name
# A B C D E F G H I J K L M N O P Q R S T U V W X Y Z

Antony And The Johnsons - Crying Light tab

    ___________________________
   / Antony and the Johnsons  /
  / The Crying Light         /
 / The Crying Light         /
/__________________________/

 The song is simply this round played 4 times with a few variations.


 4/4
  D       C                           D       Asus2             Am
|-----------------|-----0-----------|-2p0-------------|-----0-----------|
|-----3---------1-|---------1-------|-----3---------0-|---------1-------|
|---2---------0---|---------0-------|-------------2---|---------2-------|
|-0---------2-----|---2-------------|-0---------2-----|---2-------------|
|---------3-------|-----------------|---------0-------|-----------------|
|-----------------|-----------------|-----------------|-----------------|

                  (2/4)
  D/F#    G         F         C
|-----------------|---------|---------------|
|---------0-------|---------|-------1-------|
|-----2-------0---|-----2---|-----0---------| (in the 2nd and 4th round,
|---0-------0-----|---------|---2-----------|  play a 2/4-bar of C more)
|-----------------|---3-----|-3-------------|
|-2-------3-------|-1-------|---------------|


  D       C                           D       Am
|---------------0-|---------0-------|-2p0-------------|-----0-----------|
|-----3-------1---|-----1-----------|-----3-----------|---------1-------|
|---2-------0-----|---0---0---------|---------------2-|---------2-------|
|-0---------------|-2---------------|-0-----------2---|---2---2---------|
|---------3-------|-----------------|---------0-------|-0---------------|
|-----------------|-----------------|-----------------|-----------------|

                  (2/4)
  D/F#    G         F
|-----------------|---------|
|---------0-------|---------|
|-----2-------0---|-----2---|
|---0-------0-----|-----3---|
|-----------------|---3-----|
|-2-------3-------|-1-------|

(3/4)         (3/4)         (2/4)     (2/4)     (3/4)
  Em
|-------------|-------------|---------|---------|-------------|
|-------------|---0---------|---0-----|---0-----|---0---------|
|-------0-----|-2---0-------|-2---0---|-2---0---|-2---0-------|
|-----2-------|-----------2-|-------2-|-------2-|-----2-------|
|---2---------|-2-------2---|-2-------|-2-------|-2-----------|
|-0-----------|-----0-------|-----0---|-----0---|-----0-------|



********************************************************************************

 In the 3rd round, the last (confusing!) line is even longer:

(3/4)         (3/4)         (2/4)     (2/4)     (3/4)
  Em
|-------------|-------------|---------|---------|-------------|
|-------------|---0---------|---0-----|---0-----|---0---------|
|-------0-----|-2---0-------|-2---0---|-2---0---|-2---0-------|
|-----2-------|-----------2-|-------2-|-------2-|-----2-----2-|
|---2---------|-2-------2---|-2-------|-2-------|-2-------2---|
|-0-----------|-----0-------|-----0---|-----0---|-----0-------|

(3/4)         (2/4)     (2/4)     (3/4)
  Em
|-------------|---------|---------|-------------|
|---0---------|---0-----|---0-----|---0---------|
|-2---0-------|-2---0---|-2---0---|-2---0-------|
|-----------2-|-------2-|-------2-|-----2-------|
|-2-------2---|-2-------|-2-------|-2---2-------|
|-----0-------|-----0---|-----0---|-----0-------|


********************************************************************************

 In the 4th and final round, the very last bar is like this:

(3/4)
  Em
|-----0^------|
|---0-0^------|
|-2---0^------|
|-----2^------|
|-2---2^------|
|-----0^------|




 LYRICS
**********
Let I
Shy cry
Under the light
Let I
Cry sight
A child at night

I can
Have courage
To receive your love
I can
Step steps
Follow my blind

Inside
My self
The secret grows
My own
Shelter
Agony goes
The crying light

I was born to adore you
As a baby in the blind
I was born to represent you
To carry your head into the sun
To carve you face into the back of the sun
The crying light



Jon Sebastian Frederiksen - 1st /March /10
Just mail me at Maitinin@gmail.com with questions, comments and corrections!
Tap to rate this tab
# A B C D E F G H I J K L M N O P Q R S T U V W X Y Z