Song name
# A B C D E F G H I J K L M N O P Q R S T U V W X Y Z

Antony And The Johnsons - My Lord My Love chords

Highlighted       Show chord diagrams
    _________________________________
   / Antony and the Johnsons        /
  / My Lord My Love (bonus track)  /
 / The Crying Light               /
/________________________________/

 Intro:
(vocal)
|-----------------|-----1-4-----3-1-:
|-6-----4-2-----1-|---2-------------:
|-----------------|-3---------------:
|-----------------|-----------------:
|-----------------|-----------------:
|-----------------|-----------------:

(piano)
:-13------------:-13-14-13---------:-13------------:-13-14-13-------:
:----14---------:----------16------:----14---------:----------16----:
:-------15-14---:-------------15---:-------15-14---:----------------:
:---------------:------------------:---------------:----------------:
:---------------:------------------:---------------:----------------:
:---------------:------------------:---------------:----------------:



 Verse:
| Bbm | Gb | Fm | % |

| Ebm | Db  -/C -/Bb | Ab |

| Bbm | Eb |



 Chorus:
||: Db | Ab | Bbm | Gb :|| 2x

| Gb  Fm Ebm |



 Verse (similar to previous)


 Chorus:
||: Db | Ab | Bbm | Gb :|| 4x

| Gb  Fm Ebm | Bbm ...



 LYRICS
**********
The cream pooled cry, gone astray
In the park or on the lawn
My lord, my love
Take care of those you're dreaming of

My sister put it right
My mind, lock me down at night
My lord, my love
Take care of the ones you say you love

When we were children in the hay
We felt your eyes were upon us
My lord, my love
Help me to remember

My sister put it right
My mind lock me down at night
My lord, my love
Take care of the ones you say you love


+--------------------------------------------------------------------------+
Jon Sebastian Frederiksen - 18th /March /10
Just mail me at Maitinin@gmail.com with questions, comments and corrections!
Tap to rate this tab
# A B C D E F G H I J K L M N O P Q R S T U V W X Y Z