Song name
# A B C D E F G H I J K L M N O P Q R S T U V W X Y Z

Antony Santos - Medicina De Amor tab

not sure where the capo goes
play this part twice
E||-----9-13-14-13-9-----10-14-15-10------11-15-16-15-11---|
B||----9------------9--10-----------10--11--------------11-|
G||--10--------------11---------------12-------------------|
D||--------------------------------------------------------|
A||--------------------------------------------------------|
E||--------------------------------------------------------|

not sure about this part either but it sounds close enough to me
             (tremolo on that 13 for a while)
E||-11-8-10-13-13-13-13-13-13-13-13-13-13-13-13-13-13-13---|
B||--------------------------------------------------------|
G||--------------------------------------------------------|
D||--------------------------------------------------------|
A||--------------------------------------------------------|
E||--------------------------------------------------------|

E||13-15-16-16--------------------------------------------------------------|
B||-----------16-13-15-16--16-16-16-13-11~11-13-15-15-13-13-9-11-13-13-11-11|
G||-------------------------------------------------------------------------|
D||-------------------------------------------------------------------------|
A||-------------------------------------------------------------------------|
E||-------------------------------------------------------------------------|

play that twice also. then the intro again
then this:

E||----9---9-9---9---9-9-------------------|
B||---9---9-9---9---9-9--------------------|
G||-10--10----10--10-----------------------|
D||----------------------------------------|
A||----------------------------------------|
E||----------------------------------------|

"medicina de amor quiero de ti!" i dont know the rest of the song
Tap to rate this tab
 
# A B C D E F G H I J K L M N O P Q R S T U V W X Y Z