Song name
# A B C D E F G H I J K L M N O P Q R S T U V W X Y Z

Antony Santos - Voy Palla tab

Capo en el 7to traste

    Em (x-x-9-9-8-x)      D (x-x-12-11-10-10)  
     G (x-10-9-0-x-x)    B  (x-x-9-8-0-x) 
D#dim  (x-x-x-11-10-11)
 
Intro
C   G    C    G    D#dim   Em    D#dim


intro
|--------------12-----15--12----12-------|
|----10--12-13-----13--------13----------|
|-12-------------------------------------|
|----------------------------------------|
|----------------------------------------|
|----------------------------------------|

|-----10------------10----------12----15--12-----12-|
|---12---12-------12----12---13----13--------13-----|
|-12---------12-12----------------------------------|
|---------------------------------------------------|
|---------------------------------------------------|
|---------------------------------------------------|

|----10------------10----------11----------11----|
|--12---12---12-12-----------10--10---10-10--10--|
|12------------------------11--------------------|
|------------------------------------------------|
|------------------------------------------------|
|------------------------------------------------|

|-----12----------12------------11---------------|
|---12--12---12-12---12-------10--10~------------|
|-12------------------------11-------------------|
|------------------------------------------------|
|------------------------------------------------|
|------------------------------------------------|


|----------------------------|
|-12--13-12-10---------------|
|-------------12-11-9--------|
|----------------------------|
|----------------------------|
|----------------------------|


verse
Em
Voy pa lla , voy a buscar 
                  D
la mujer que me domina

la buscare, la traere
                       G        B
aunque el mundo me lo impida   ahhh

        Em     
bendita sea toda las mujeres
                  D  
India, blanca y morena

Que con su voz y su color
                 G       B
Hasta que yo me muera    ahh

       Em
Voy pa lla aunque llueva
                     D
O aunque se unda la tierra

Yo llegare y la besare
                     G         B
aunque pele con cualquiera    ahhh

intro

Em
Porque te fuistes y me dejastes
                       D
Si soy el macho de tu vida mami

No soy culpable de que esa boda
                   G     B
la impidiera tu familia  ahhh

       Em
voy pa lla aunque halla un candel
                       D
porque se que tu me quiere mami

yo soy el hombre que te enseo a querer
                  G     B
y te hizo sentir mujer  ahhh

Solo

Em                                 B
Hay que nadie me hable encontra de ella
            Em
(que voy pa lla)
                      B
es que me gusta esa mujer
            Em
(que voy pa lla)
               B     
amigo mio si la ve 
            Em
(que voy pa lla)
                  B
digale, digale, digale
            Em
(que voy pa lla)
                   B
digale, digale, digale
            Em
(que voy pa lla)
                     B
mami mami abre la ventana
            Em
(que voy pa lla)
                      B
mami mai habre la perciana
            Em
(que voy pa lla)
                        B 
Y ponteme bien, ponteme bien
            Em
(que voy pa lla)
Tap to rate this tab
# A B C D E F G H I J K L M N O P Q R S T U V W X Y Z