Song name
# A B C D E F G H I J K L M N O P Q R S T U V W X Y Z

Anuar Zain - Selamat Hari Raya tab

SeLaMaT HaRi RaYa     

^ = bend up
v = release bend

intro x2

E--------------------------------------------|
B---7-6-----4-------3-----4--5---------------|
G-------5-------2-------4--------------------|
D--------------------------------------------|
A--------------------------------------------|
E--------------------------------------------|

verse x2

E--------------------------------------------|
B-------5------------------------------------|
G---5-7------5-7-5-4-------------------------|
D--------------------------------------------|
A--------------------------------------------|
E--------------------------------------------|

E-----------------5--------------------------|
B-------------5-6---8-6-5--------------------|
G-----4-7-5-7--------------------------------|
D---5----------------------------------------|
A--------------------------------------------|
E--------------------------------------------|

E--------------------------------------------|
B-------5--------5-8-6-----------------------|
G---5-7------5-7-----------------------------|
D--------------------------------------------|
A--------------------------------------------|
E--------------------------------------------|

E--------------------------------------------|
B-----5-6-5-----5----------------------------|
G---7-------5-7---7-4--5-7-5-----------------|
D--------------------------------------------|
A--------------------------------------------|
E--------------------------------------------|

verse 2

E--------------------------------------------|
B-------5------------------------------------|
G---5-7-----5-7-5-4--------------------------|
D--------------------------------------------|
A--------------------------------------------|
E--------------------------------------------|

E-----------------5--------------------------|
B-------------5-6---8-6-5--------------------|
G-----4-7-5-7--------------------------------|
D---5----------------------------------------|
A--------------------------------------------|
E--------------------------------------------|

E--------------------------------------------|
B---------5-------5-6^-6---------------------|
G-----5-7-----5-7----------------------------|
D---4----------------------------------------|
A--------------------------------------------|
E--------------------------------------------|

E----------------------------5---------------|
B-----5-6-5-----5--------------8-6-5---5-----|
G---7-------5-7---7-4--5-7-5---------7---5---|
D--------------------------------------------|
A--------------------------------------------|
E--------------------------------------------|

E---------------------5-7-8------------------|
B-------5-6----5-6-8--------8-5--------------|
G---5-7------7------------------7-5----------|
D--------------------------------------------|
A--------------------------------------------|
E--------------------------------------------|

E--------------------------------------------|
B-----------------5--6-5-8^v-----------------|
G---5-4-----4-5-7----------------------------|
D-------5-7----------------------------------|
A--------------------------------------------|
E--------------------------------------------|

E---------------------5-7-8------------------|
B-------5-6----5-6-8--------8-5--------------|
G---5-7------7------------------7-5----------|
D--------------------------------------------|
A--------------------------------------------|
E--------------------------------------------|

E--------------------------------------------|
B-----------------5--6-----------------------|
G---5-4-----4-5-7------7-5-------------------|
D-------5-7----------------------------------|
A--------------------------------------------|
E--------------------------------------------|

solo

E--------------------------------------------|
B---------17---------------------------------|
G---17-19------17-19-17-16-------------------|
D--------------------------------------------|
A--------------------------------------------|
E--------------------------------------------|

E---------------------------17---------------|
B---------------------17-18----20-18-17------|
G------16-17-19-17-19------------------------|
D---17---------------------------------------|
A--------------------------------------------|
E--------------------------------------------|

E--------------------------------------------|
B------------17---------17-18^-18------------|
G---16-17-19------17-19----------------------|
D--------------------------------------------|
A--------------------------------------------|
E--------------------------------------------|

E----------------------------------------------------17-19-20-|
B------17-18-17-------17--------------------17-18-20----------|
G---19----------17-19----19-16--17-19-17-19-------------------|
D-------------------------------------------------------------|
A-------------------------------------------------------------|
E-------------------------------------------------------------|

E-------------------------17-19-20-------------|
B------17-18-----17-18-20----------20-17-------|
G---19--------19-------------------------19-17-|
D----------------------------------------------|
A----------------------------------------------|
E----------------------------------------------|

E--------------------------------------------|
B------------------------17-18-17-20---------|
G---17-16-------16-17-19---------------------|
D---------17-19------------------------------|
A--------------------------------------------|
E--------------------------------------------|

E----------------------------17-19-20-------------|
B---------17-18-----17-18-20----------20-17-------|
G---17-19--------19-------------------------19-17-|
D-------------------------------------------------|
A-------------------------------------------------|
E-------------------------------------------------|

E--------------------------------------------|
B------------------------18-17---------------|
G---17-16-------16-17-19-------19-17^v-------|
D---------17-19------------------------------|
A--------------------------------------------|
E--------------------------------------------|
Tap to rate this tab
 
# A B C D E F G H I J K L M N O P Q R S T U V W X Y Z