Song name
# A B C D E F G H I J K L M N O P Q R S T U V W X Y Z

Anus Benus - Anus Benus tab

Help us improve GuitareTab! Take a short survey!
play 2 times:

E -----------------------------------------------------|
A-------0---0------------0-------------------0---------|
D------------------0------------2-----0-------------0--|
G------------------------------------------------------|
H------------------------------------------------------|
e------------------------------------------------------|

play once:

E --------------------------------------------------------------------------------------------------------|
A-------1---1------------1-------------------1--------1-----1--------1-----------------------1---------0--|
D------------------0------------2-----0----------0----------------0-----------3b2-----2------------2--2---|
G---------------------------------------------------------------------------------------------------------|
H---------------------------------------------------------------------------------------------------------|
e---------------------------------------------------------------------------------------------------------|

now heavy distortion:

E --------------------------------------------------------------------------------------|
A --0-0-0--0-0--0--0-0----3-3--3--3-3-3--3-3-----2--2--2--2--2--2-2-2-2-2-2-2-2-2-------|
D---2-2--2--2-2-2--2-2----2-2--2--2-2-2--2-2-----2--2--2--2--2--2-2-2-2-2-2-2-2-2--3?2--|
G---------------------------------------------------------------------------------------|
H---------------------------------------------------------------------------------------|
e---------------------------------------------------------------------------------------|

that?s the song basically...
Related for Anus Benus tab