Song name
# A B C D E F G H I J K L M N O P Q R S T U V W X Y Z

Anvil - Metal On Metal tab

Metal On Metal By: Anvil

Intro
E------------------------------------------------|
B------------------------------------------------|
G------------------------------------------------|
D--3--2--3--6------------3--2--3--2--------------|
A--3--2--3--6------------3--2--3--2--------------|
E--1--0--1--4------------1--0--1--0--------------|

Main Riff
E------------------------------------------------|
B------------------------------------------------|
G------------------------------------------------|
D--3--2--3--6------6--x-x-3--2--3--8------8--x-x-|
A--3--2--3--6------6--x-x-3--2--3--8------8--x-x-|
E--1--0--1--4------4--x-x-1--0--1--6------6--x-x-|

E------------------------------------------------|
B------------------------------------------------|
G------------------------------------------------|
D--3--2--3--6------6--x-x-3--2--3--2---------x-x-|
A--3--2--3--6------6--x-x-3--2--3--2---------x-x-|
E--1--0--1--4------4--x-x-3--0--1--0---------x-x-|

Verse Riff
E------------------------------------------------|
B------------------------------------------------|
G-----------1----1-------------------3-----------|
D--3--2--3--------------2-2-3--2--3--------------|
A------------------------------------------------|
E------------------------------------------------|
   .  .  .              . . .  .  .
E------------------------------------------------|
B------------------------------------------------|
G-----------1----1----1--------------------------|
D--3--2--3--------------2-2-3--2--3--2-----------|
A------------------------------------2-----------|
E------------------------------------0-----------|
   .  .  .              . . .  .  .

Verse Break
E------------------------------------------------|
B------------------------------------------------|
G------------------------------------------------|
D--3--3-3-3--3----5--6----3--3-3-3--3----3--2----|
A--3--3-3-3--3----5--6----3--3-3-3--3----3--2----|
E--1--1-1-1--1----3--4----1--1-1-1--1----1--0----|

Bridge
E------------------------------------------------|
B------------------------------------------------|
G------------------------------------------------|
D--8----8----8----x-x-x-x-8----8----8----x-x-x-x-|
A--8----8----8----x-x-x-x-8----8----8----x-x-x-x-|
E--6----6----6----x-x-x-x-6----6----6----x-x-x-x-|

E------------------------------------------------|
B------------------------------------------------|
G------------------------------------------------|
D--8----8----8----8--x-x-3--2--3--6------6--x-x--|
A--8----8----8----8--x-x-3--2--3--6------6--x-x--|
E--6----6----6----6--x-x-1--0--1--4------6--x-x--|

Order

Intro(x1)
Main Riff(x2)
Verse Riff(x2)
Main Riff(x1)
Verse Riff(x1)
Verse Break(x2)
Verse Riff(x2)
Bridge(x2)
Main Riff(x1)
Verse Riff(x2)
Verse Break(x2)
Main Riff(x4), Solo
Verse Riff(x3)
Bridge(x2)
Main Riff(x5)

Legend

. = Palm Mute
x = Dead Note

Tap to rate this tab
# A B C D E F G H I J K L M N O P Q R S T U V W X Y Z