Song name
# A B C D E F G H I J K L M N O P Q R S T U V W X Y Z

Anvil - Metal On Metal tab

-----------------------------------------------------------------------
			     Metal On Metal - Anvil
-----------------------------------------------------------------------
Tabbed by:5150rocker	
Email:5150rocker@sbcglobal.net

Tuning:Standard
  Intro
e|--------------------|
B|--------------------|
G|--------------------|
D|--------------------|
A|--4---4/7~~4---4-3~~|
E|--2-0-2/5~~2-0-2-1~~|
  RIFF 1
e|-------------------------------------------|play
B|-------------------------------------------|2x's
G|-------------------------------------------|
D|-------------------------------------------|
A|--4---4/7--7-4---4/9--9-4---4/7--7-4---4-3-|
E|--2-0-2/5--5-2-0-2/7--7-2-0-2/5--5-2-0-2-1-|
  RIFF 2
e|----------------------------------------------|play
B|----------------------------------------------|2x's
G|----------------------------------------------|
D|----------------------------------------------|
A|------------------------------------------3~~~|
E|--2-0-2/5-5~~2-0-2/7~~~~~2-0-2/5-5~~2-0-2-1~~~|

e|-------------------------------------------|
B|-------------------------------------------|
G|-------------------------------------------|
D|-------------------------------------------|
A|--4---4/7--7-4---4/9--9-4---4/7--7-4---4-3-|
E|--2-0-2/5--5-2-0-2/7--7-2-0-2/5--5-2-0-2-1-|

e|----------------------------------------------|
B|----------------------------------------------|
G|----------------------------------------------|
D|----------------------------------------------|
A|------------------------------------------3~~~|
E|--2-0-2/5-5~~2-0-2/7~~~~~2-0-2/5-5~~2-0-2-1~~~|
  RIFF 3
e|----------------------------------------------|play
B|----------------------------------------------|2x's
G|----------------------------------------------|
D|--11-11-11-11-11--13-14-11-11-11-11-11--11-10-|
A|---9--9--9--9--9--11-12--9--9--9--9--9---9--8-|
E|----------------------------------------------|

e|----------------------------------------------|play
B|----------------------------------------------|2x's
G|----------------------------------------------|
D|----------------------------------------------|
A|------------------------------------------3~~~|
E|--2-0-2/5-5~~2-0-2/7~~~~~2-0-2/5-5~~2-0-2-1~~~|
  RIFF 4
e|-----------------------------------------|
B|-----------------------------------------|
G|--4-4-4-4\2/4-4-4-4\2/4-4-4-4\2----------|
D|--4-4-4-4\2/4-4-4-4\2/4-4-4-4\2----------|
A|--2-2-2-2-0-2-2-2-2-0-2-2-2-2-0--4---4/7-|
E|---------------------------------2-0-2/5-|
                   END OF RIFF 4 |
e|--------------------------------------------|
B|--------------------------------------------|
G|--4-4-4-4\2/4-4-4-4\2/4-4-4-4\2-------------|
D|--4-4-4-4\2/4-4-4-4\2/4-4-4-4\2-------------|
A|--2-2-2-2-0-2-2-2-2-0-2-2-2-2-0--4---4/7--7-|
E|---------------------------------2-0-2/5--5-|

e|--------------------------------|
B|--------------------------------|
G|--------------------------------|
D|--------------------------------|
A|--4---4/9--9-4---4/7--7-4---4-3-|
E|--2-0-2/7--7-2-0-2/5--5-2-0-2-1-|


e|---------------------------------------------|play
B|---------------------------------------------|2x's
G|---------------------------------------------|
D|---------------------------------------------|
A|---------------------------------------------|
E|-2-0-2/5-5~~2-0-2/7~~~~~2-0-2/5-5~~2-0-2-1~~~|

e|----------------------------------------------|play
B|----------------------------------------------|2x's
G|----------------------------------------------|
D|--11-11-11-11-11--13-14-11-11-11-11-11--11-10-|
A|---9--9--9--9--9--11-12--9--9--9--9--9---9--8-|
E|----------------------------------------------|

For Solo rhythym gtr plays RIFF 1 4x's
Then RIFF 2 4x's
Then RIFF 4
Then RIFF 1 to end of song


| /  slide up
| \  slide down
| h  hammer-on
| p  pull-off
| ~  vibrato
| +  harmonic
| x  Mute note
===============================================================================
Tap to rate this tab
# A B C D E F G H I J K L M N O P Q R S T U V W X Y Z