Song name
# A B C D E F G H I J K L M N O P Q R S T U V W X Y Z

Anvil - Winged Assasins tab

Awesome song.....i kinda figured it out by looking at a vid on youtube.com of the live version

intro
drum and bass intro then this enters......
-------------------------------------------------|
-------------------------------------------------|
-------------------------------------------------|
---9~------------10-10/--------------------------|
---7~------------8--8-/--------------------------|
---0~------------0--0-/--------------------------|

-------------------------------------------------|
-------------------------------------------------|
-------------------------------------------------|
---9~------------10-7/---------------------------|
---7~------------8--5/---------------------------|
---0~------------0--0/---------------------------|

intro x2 then lips does a sick ass pick slide thing...go watch the live amature videos

Verse

-------------------------------------------------|
-------------------------------------------------|
-------------------------------------------------|
---9-------9-------9-------10-10-----------------|
---7-------7-------7-------8--8------------------|
---0-0-0-0-0-0-0-0-0-0-0-0-0--0------------------|
     . . .   . . .   . . .
-------------------------------------------------|
-------------------------------------------------|
-------------------------------------------------|
---9-------9-------10-10-7-7---------------------|
---7-------7-------8--8--5-5---------------------|
---0-0-0-0-0-0-0-0-0--0--0-0---------------------|
     . . .   . . .
no idea how many times u play the verse


then the chorus is the intro


no idea how to play the bridges or solo's
thanks for looking at my tab
im sure this is correct so far

~ = hold note
/ = slide down
. = pal mute

tab by Josh C

feel free to comment and rate=)
thanks
Tap to rate this tab
# A B C D E F G H I J K L M N O P Q R S T U V W X Y Z