Guitaretab - guitar tabs
Song name
# A B C D E F G H I J K L M N O P Q R S T U V W X Y Z

Anvil - Flying Blind tab

Flying Blind by Anvil, off their album This is Thirteen, 2007.

Intro
E|-------------------------------------------------------------------|
A|-------------------------------------------------------------------|
D|--9--99---5--55---------------------9--99---5--55------------------|
G|--9--99---5--55---7--77-------------9--99---5--55---7--77--9-9-9-9-|
B|7-7--77-3-3--33---7--77-----------7-7--77-3-3--33---7--77--9-9-9-9-|
E|----------------5-5--55--7777--53-----------------5-5--55--7-7-7-7-|
[ Tab from: http://www.guitaretab.com/a/anvil/217841.html ]
E|----------------------------------------------------------------------|
A|----------------------------------------------------------------------|
D|--9--99---5--55-----------------------9--99---5--55--5777577757775777-|
G|--9--99---5--55---7--77---------------9--99---5--55--5777577757775777-|
B|7-7--77-3-3--33---7--77-------------7-7--77-3-3--33--3555355535553555-|
E|----------------5-5--55--7777--53-------------------------------------|
                                                      |________________|
                                                             P.M.
Verse
E|-------------------------------------------------------------------|
A|-------------------------------------------------------------------|
D|9---99-5---55--------------------9---99--5---55---5777577757775777-|
G|9---99-5---55---7---77-----------9---99--5---55---5777577757775777-|
B|7---77-3---33---7---77-----------7---77--3---33---3555355535553555-|
E|----------------5---55--7777--53-----------------------------------|
                                                   |________________|
Pre-Chorus Verse                                          P.M.
E|------------------------------------------------------------------|
A|------------------------------------------------------------------|
D|9---9-5---5-------------------9---9-5---5-------------------------|
G|9---9-5---5-7---7-------------9---9-5---5-7---7-9-9-9-9-----------|
B|7---7-3---3-7---7-------------7---7-3---3-7---7-9-9-9-9-----------|
E|------------5---5---7777--53--------------5---5-7-7-7-7-----------|

Chorus
E|-------------------------------------------------------------------|
A|-------------------------------------------------------------------|
D|--9--99---5--55---------------------9--99---5--55------------------|
G|--9--99---5--55---7--77-------------9--99---5--55---7--77--9-9-9-9-|
B|7-7--77-3-3--33---7--77-----------7-7--77-3-3--33---7--77--9-9-9-9-|
E|----------------5-5--55--7777--53-----------------5-5--55--7-7-7-7-|

E|----------------------------------------------------------------------|
A|----------------------------------------------------------------------|
D|--9--99---5--55-----------------------9--99---5--55--5777577757775777-|
G|--9--99---5--55---7--77---------------9--99---5--55--5777577757775777-|
B|7-7--77-3-3--33---7--77-------------7-7--77-3-3--33--3555355535553555-|
E|----------------5-5--55--7777--53-------------------------------------|
                                                      |________________|
                                                             P.M.
Bridge
E|----------------         --------------------------------|
A|----------------         --------------------------------|
D|---7-------5----         --------------------------------|
G|--7--7-7--5--5-5         9-9-9-9-9-9-9-9-9-9-9-9-9-9-9-9-|
B|5-----5-3-----3-         9-9-9-9-9-9-9-9-9-9-9-9-9-9-9-9-|
E|----------------         7-7-7-7-7-7-7-7-7-7-7-7-7-7-7-7-|
    Repeat 3X

Basically that's the whole song, except for the solo. Have fun!
Related for Flying Blind tab