Anvil - School Love tab

School Love!!

Main Riff 2x
|-----------------------------|
|-----------------------------|
|-----------------------------|
|-9---11--12/14---9---11--7\4-|
|-7---9---10/12---7---9---5\2-|
|---0---0-------0---0---0-----|
    .   .       .   .   .
Verse 6x
|------------------------------|
|------------------------------|
|------------------------------|
|------------------------------|
|-7---9---10-----7---9---5-----|
|-0-0---0----000-0-0---0---000-|
    .   .    ...   .   .   ...
Chorus
|----------------------------------------------------------------------|
|----------------------------------------------------------------------|
|----------------------------------------------------------------------|
|-------------------9--9-------------------7--7------------------------|
|-7p5---7p5---7p5---7--7--7p5---7p5---7p5--5--5--7p5---7p5---7p5-------|
|-----7-----7-----7-----------7-----7-----7----------7-----7-----7-----|

Main Riff 2x
|-----------------------------|
|-----------------------------|
|-----------------------------|
|-9---11--12/14---9---11--7/4-|
|-7---9---10/12---7---9---5/2-|
|---0---0-------0---0---0-----|
    .   .       .   .   .
Verse 6x
|------------------------------|
|------------------------------|
|------------------------------|
|------------------------------|
|-7---9---10-----7---9---5-----|
|-0-0---0----000-0-0---0---000-|
    .   .    ...   .   .   ...
Chorus 2 3x
|---------------------------|
|---------------------------|
|---------------------------|
|---9-7---7-5---5-4tr5-9--9-|
|-0-----0-----0--------7--7-|
|---------------------------|

Interlude 2x
|------------------------------|
|------------------------------|
|------------------------------|
|-----4-5---5-7---7-9---5~-7-4-|
|-0-7-----0-----0-----0--------|
|------------------------------|

Interlude 2 2x
|------------------------------|
|------------------------------|
|---4-6-7---7-9---9-11--7--9-6-|
|---2-4-5---5-7---7-9---5--7-4-|
|-0-------0-----0-----0--------|
|------------------------------|

Break 2x
|----------------------|
|----------------------|
|----------------------|
|-9~~~-7~~~-12~~~-9~~~-|
|-7~~~-5~~~-10~~~-7~~~-|
|----------------------|

Interlude 3 2x
|----------------------------------------------------------------------|
|----------------------------------------------------------------------|
|----------------------------------------------------------------------|
|-11-10-9------9-------9-----9--7--9-4/5-------4/5-------4/5-----5-----|
|-9--8--7------7-------7-----7--5--7-2/3-3-3-3-2/3-3-3-3-2/3-3-3-3-----|
|--------0-0-0---0-0-0---0-0-------------------------------------------|
         . . .   . . .   . .             . . .     . . .     . .
|----------------------------------------------------------------------|
|----------------------------------------------------------------------|
|----------------------------------------------------------------------|
|-11-10-9/4-----9/4-----9/4-----9--7--9--4/5-------4/5-------4/5-------|
|-9--8--7/2-----7/2-----7/2-----7--5--7--2/3-3-3-3-2/3-3-3-3-2/3-3-3-3-|
|----------0-0-----0-0-----0-0-----------------------------------------|
           . .     . .     . .               . . .     . . .     . . .

Guitar Solo
Part 1 2x
|-------------------------------------------------|
|-5--3-5-5-5h8p5---5-5h8p5---5-5h8p5---5--5-5-5---|
|----------------7---------7---------7------------|
|-------------------------------------------------|
|-------------------------------------------------|
|-------------------------------------------------|

|-------------------------------------------------|
|-------------------------------------------------|
|-7-7-7-5-5-5-5h7p5---5-5-5h7p5-5h7p5-5h7p5-5h7p5-|
|-------------------7----------7-----7-----7------|
|-------------------------------------------------|
|-------------------------------------------------|

Part 2
|-12--12-12-12-12h15p12----12--12h15p12--12h15p12--12h15p12--12h15p12---|
|-----------------------15-------------15--------15--------15--------15-|
|-----------------------------------------------------------------------|
|-----------------------------------------------------------------------|
|-----------------------------------------------------------------------|
|-----------------------------------------------------------------------|

|-----------------------------------------------------------------------|
|-15-15-15-13-13-13-15p13----13-15p13--17p13--15p13--17p13--------------|
|-------------------------14---------14-----14-----14-------------------|
|-----------------------------------------------------------------------|
|-----------------------------------------------------------------------|
|-----------------------------------------------------------------------|

|-12--12-12-15-12-12-12-17-15-12-15-----12-----12-|
|-----------------------------------15b----15b----|
|-------------------------------------------------|
|-------------------------------------------------|
|-------------------------------------------------|
|-------------------------------------------------|

|-------------------------------------------------|
|-15p13---13-13-15p13--15p13--15p13--15p13--------|
|-------14-----------14-----14-----14-----14------|
|-------------------------------------------------|
|-------------------------------------------------|
|-------------------------------------------------|

Break 2x
|----------------------|
|----------------------|
|----------------------|
|-9~~~-7~~~-12~~~-9~~~-|
|-7~~~-5~~~-10~~~-7~~~-|
|----------------------|

Main Riff Altered
|-----------------------------------------------------------|
|-----------------------------------------------------------|
|-----------------------------------------------------------|
|-9---11--12--9-9-9---11--7--9-9-9---11--12--9-9-9---11--7--|
|-7---9---10--7-7-7---9---5--7-7-7---9---10--7-7-7---9---5--|
|---0---0-----------0---0----------0---0-----------0---0----|
    .   .           .   .          .   .           .   .

Verse 6x
|------------------------------|
|------------------------------|
|------------------------------|
|------------------------------|
|-7---9---10-----7---9---5-----|
|-0-0---0----000-0-0---0---000-|
    .   .    ...   .   .   ...

Main Riff Altered
|-----------------------------------------------------------|
|-----------------------------------------------------------|
|-----------------------------------------------------------|
|-9---11--12--9-9-9---11--7--9-9-9---11--12--9-9-9---11--7--|
|-7---9---10--7-7-7---9---5--7-7-7---9---10--7-7-7---9---5--|
|---0---0-----------0---0----------0---0-----------0---0----|
    .   .           .   .          .   .           .   .

Chorus
|----------------------------------------------------------------------|
|----------------------------------------------------------------------|
|----------------------------------------------------------------------|
|-------------------9--9-------------------7--7------------------------|
|-7p5---7p5---7p5---7--7--7p5---7p5---7p5--5--5------------------------|
|-----7-----7-----7-----------7-----7-----7----------------------------|

Outro
|----------------------------------------------|
|----------------------------------------------|
|----------------------------------------------|
|----------------------------------------------|
|-7-5----7--5------7---5--------7----5---------|
|-----5--------5-----------5--------------5----|

|----------------------------------------------|
|----------------------------------------------|
|----------------------------------------------|
|----------------------------------------------|
|-7-----5------------7------5------------------|
|-------------5--------------------5/0---------|

|----------------------------------------------------------------------|
|----------------------------------------------------------------------|
|----------------------------------------------------------------------|
|------------------------------------------9~~~~~~~~~~~~~~~~--9~\4-----|
|------------------------------------------7~~~~~~~~~~~~~~~~--7~\2-----|
|-0000000000000000000000000000000000000000-----------------------------|
  ........................................
Tap to rate this tab
 
# A B C D E F G H I J K L M N O P Q R S T U V W X Y Z