Song name
# A B C D E F G H I J K L M N O P Q R S T U V W X Y Z

Anya Marina - Satellite Heart tab

have yet to figure out rest of song, though it appears it's just the intro thing over & over.

standard tuning, listen to song for rhythm. 


e|------------------------------|
B|------------------------------|
G|------------------------------|
D|-------8-8---8-8---8-8--------|
A|-----9-9----8-8---------------|
E|------------------7-7---------|

and then this between verses:


e|------------------------------|
B|------------------------------|
G|-----8-8----7--7--------------|
D|------------------------------|
A|------------------------------|
E|------------------------------|

and in the chorus it's something like this:


e|------------------------------|
B|------------------------------|
G|-----8-8---8-8----8--8--------|
D|----------9--9----------------|
A|----7-7---------6-6-----------|



Tap to rate this tab
# A B C D E F G H I J K L M N O P Q R S T U V W X Y Z