Song name
# A B C D E F G H I J K L M N O P Q R S T U V W X Y Z

Anya Marina - Satellite Heart tab

Frist tab!!! hope it's right

Intro

e||-----2-2---2-2---2-2---2-|-----2-2---2-2---2-2---2-|
B||-------------------------|-------------------------|
G||-------------------------|-------------------------|
D||-1-1-----1-----1-----1---|-------------------------|
A||-------------------------|-4-4-----4-----4-----4---|
E||-------------------------|-------------------------|


e||-------------------------|
B||-------------------------|
G||-----3-3---3-3---3-3---3-|
D||-------------------------|
A||-------------------------|
E||-2-2-----2-----2-----2---|

Verse 1:
e||-----2-2---2-2---2-2---2-|-----2-2---2-2---2-2---2-|
B||-------------------------|-------------------------|
G||-------------------------|-------------------------|
D||-1-1-----1-----1-----1---|-------------------------|
A||-------------------------|-4-4-----4-----4-----4---|
E||-------------------------|-------------------------|
          So pretty, so smart, such a waste of a young heart

e||-------------------------|
B||-------------------------|
G||-----3-3---3-3---3-3---3-|
D||-------------------------|
A||-------------------------|
E||-2-2-----2-----2-----2---|

e||-----2-2---2-2---2-2---2-|-----2-2---2-2---2-2---2-|
B||-------------------------|-------------------------|
G||-------------------------|-------------------------|
D||-1-1-----1-----1-----1---|-------------------------|
A||-------------------------|-4-4-----4-----4-----4---|
E||-------------------------|-------------------------|
           What a pity, what a sham, whats the mater with you man

e||-------------------------|
B||-------------------------|
G||-----3-3---3-3---3-3---3-|
D||-------------------------|
A||-------------------------|
E||-2-2-----2-----2-----2---|

-------------------------------------------------------

e||-----2-2---2-2---2-2---2-|-----2-2---2-2---2-2---2-|
B||-------------------------|-------------------------|
G||-------------------------|-------------------------|
D||-1-1-----1-----1-----1---|-------------------------|
A||-------------------------|-4-4-----4-----4-----4---|
E||-------------------------|-------------------------|


e||-------------------------|
B||-------------------------|
G||-----4-4---4---3-3---3---|
D||-------------------------|
A||-------------------------|
E||-2-2-----2---2-----2-----|

------------------------------------------------------

Verse 2
e||-----2-2---2-2---2-2---2-|-----2-2---2-2---2-2---2-|
B||-------------------------|-------------------------|
G||-------------------------|-------------------------|
D||-1-1-----1-----1-----1---|-------------------------|
A||-------------------------|-4-4-----4-----4-----4---|
E||-------------------------|-------------------------|
           Don't you see it's...     Out of mind and out of sight
e||-------------------------|
B||-------------------------|
G||-----3-3---3-3---3-3---3-|
D||-------------------------|
A||-------------------------|
E||-2-2-----2-----2-----2---|

e||-----2-2---2-2---2-2---2-|-----2-2---2-2---2-2---2-|
B||-------------------------|-------------------------|
G||-------------------------|-------------------------|
D||-1-1-----1-----1-----1---|-------------------------|
A||-------------------------|-4-4-----4-----4-----4---|
E||-------------------------|-------------------------|
           Call on all your girls... Put a lid on all that noise

e||-------------------------|
B||-------------------------|
G||-----3-3---3-3---3-3---3-|
D||-------------------------|
A||-------------------------|
E||-2-2-----2-----2-----2---|

Chorus
e||-----2-2---2-2---2-2---2-|-----2-2---2-2---2-2---2-|
B||-------------------------|-------------------------|
G||-------------------------|-------------------------|
D||-1-1-----1-----1-----1---|-------------------------|
A||-------------------------|-4-4-----4-----4-----4---|
E||-------------------------|-------------------------|
    I'm                a    satellite      heart,           

e||-------------------------|-----------------2-2---2-|
B||-------------------------|-----4-4---4-------------|
G||-----4-4---4-4---4-4---4-|-------------------------|
D||-------------------------|-------------0-0-----0---|
A||-------------------------|-2-2-----2---------------|
E||-2-2-----2-----2-----4---|-------------------------|
           lost  in   the      dark

e||-----2-2---2-2---2-2---2-|-----2-2---2-2---2-2---2-|
B||-------------------------|-------------------------|
G||-------------------------|-------------------------|
D||-1-1-----1-----1-----1---|-------------------------|
A||-------------------------|-4-4-----4-----4-----4---|
E||-------------------------|-------------------------|
    I'm            spun out  so     Far     you    stop

e||-------------------------|-------------------------|
B||-------------------------|-------------------------|
G||-----4-4---4-----3-3---3-|-----3-3---3-3---3-3---3-|
D||-------------------------|-------------------------|
A||-------------------------|-------------------------|
E||-2-2-----2---2-2-----2---|-2-2-----2-----2-----2---|
    i start,                  But    i'll   be     true 

e||-------------------------|
B||-------------------------|
G||-----3-3---3-3---3-3---3-|
D||-------------------------|
A||-------------------------|
E||-2-2-----2-----2-----2---|
    to you

-------------------------------------------------------

e||-----2-2---2-2---2-2---2-|-----2-2---2-2---2-2---2-|
B||-------------------------|-------------------------|
G||-------------------------|-------------------------|
D||-1-1-----1-----1-----1---|-------------------------|
A||-------------------------|-4-4-----4-----4-----4---|
E||-------------------------|-------------------------|


e||-------------------------|-------------------------|
B||-------------------------|-------------------------|
G||-----3-3---3-3---3-3---3-|-----3-3---3-3---3-3---3-|
D||-------------------------|-------------------------|
A||-------------------------|-------------------------|
E||-2-2-----2-----2-----2---|-2-2-----2-----2-----2---|

-------------------------------------------------------

Verse 3
e||-----2-2---2-2---2-2---2-|-----2-2---2-2---2-2---2-|
B||-------------------------|-------------------------|
G||-------------------------|-------------------------|
D||-1-1-----1-----1-----1---|-------------------------|
A||-------------------------|-4-4-----4-----4-----4---|
E||-------------------------|-------------------------|
          I hear your living out... Running in a whole new 

e||-------------------------|
B||-------------------------|
G||-----3-3---3-3---3-3---3-|
D||-------------------------|
A||-------------------------|
E||-2-2-----2-----2-----2---|
   scene

e||-----2-2---2-2---2-2---2-|-----2-2---2-2---2-2---2-|
B||-------------------------|-------------------------|
G||-------------------------|-------------------------|
D||-1-1-----1-----1-----1---|-------------------------|
A||-------------------------|-4-4-----4-----4-----4---|
E||-------------------------|-------------------------|
           you know i haven't slept.. You're the only thing

e||-------------------------|-------------------------|
B||-------------------------|-------------------------|
G||-----4-4---4-----3-3---3-|-----3-3---3-3---3-3---3-|
D||-------------------------|-------------------------|
A||-------------------------|-------------------------|
E||-2-2-----2---2-2-----2---|-2-2-----2-----2-----2---|
    I see

e||-------------------------|
B||-------------------------|
G||-----3-3---3-3---3-3---3-|
D||-------------------------|
A||-------------------------|
E||-2-2-----2-----2-----2---|


Chorus x2
e||-----2-2---2-2---2-2---2-|-----2-2---2-2---2-2---2-|
B||-------------------------|-------------------------|
G||-------------------------|-------------------------|
D||-1-1-----1-----1-----1---|-------------------------|
A||-------------------------|-4-4-----4-----4-----4---|
E||-------------------------|-------------------------|
    I'm              a satellite heart, lost in the dark  

e||-----2-2---2-2---2-2---2-|
B||-------------------------|
G||-------------------------|
D||-------------------------|
A||-------------------------|
E||-4-4-----4-----4-----4---|

e||-----2-2---2-2---2-2---2-|-----2-2---2-2---2-2---2-|
B||-------------------------|-------------------------|
G||-------------------------|-------------------------|
D||-1-1-----1-----1-----1---|-------------------------|
A||-------------------------|-4-4-----4-----4-----4---|
E||-------------------------|-------------------------|
    I'm            spun out  so    far,     you    stop

e||-------------------------|-------------------------|
B||-------------------------|-------------------------|
G||-----4-4---4-----3-3---3-|-----3-3---3-3---3-3---3-|
D||-------------------------|-------------------------|
A||-------------------------|-------------------------|
E||-2-2-----2---2-2-----2---|-2-2-----2-----2-----2---|
    i start,                  But    i'll   be     true 

e||-------------------------|
B||-------------------------|
G||-----3-3---3-3---3-3---3-|
D||-------------------------|
A||-------------------------|
E||-2-2-----2-----2-----2---|
    to you


e||-----2-2---2-2---2-2---2-|-------------------------|
B||-------------------------|-------------------------|
G||-------------------------|-----3-3---3-3---3-3---3-|
D||-------------------------|-------------------------|
A||-4-4-----4-----4-----4---|-------------------------|
E||-------------------------|-2-2-----2-----2-----2---|
   No   matter   what   you   do

e||-----2-2---2-2---2-2---2-|-------------------------|
B||-------------------------|-------------------------|
G||-------------------------|-----3-3---3-3---3-3---3-|
D||-------------------------|-------------------------|
A||-4-4-----4-----4-----4---|-------------------------|
E||-------------------------|-2-2-----2-----2-----2---|
    Yeah      i'll     be     true    to    you



e||-------------------------|-------------------------|
B||-4-----------------------|-3-----------------------|
G||-4-----------------------|-4-----------------------|
D||-------------------------|-------------------------|
A||-2-----------------------|-2-----------------------|
E||-------------------------|-------------------------|

e||-------------------------|
B||-------------------------|
G||-3-----------------------|
D||-4-----------------------|
A||-------------------------|
E||-2-----------------------|


e||-----2-2---2-2---2-2---2-|-----2-2---2-2---2-2---2-|
B||-------------------------|-------------------------|
G||-------------------------|-------------------------|
D||-1-1-----1-----1-----1---|-------------------------|
A||-------------------------|-4-4-----4-----4-----4---|
E||-------------------------|-------------------------|


e||-------------------------|
B||-------------------------|
G||-----3-3---3-3---3-3---3-|
D||-------------------------|
A||-------------------------|
E||-2-2-----2-----2-----2---|


The end....
Tap to rate this tab
 
# A B C D E F G H I J K L M N O P Q R S T U V W X Y Z