Song name
# A B C D E F G H I J K L M N O P Q R S T U V W X Y Z

Anya Marina - Satellite Heart tab

Song: Satellite Heart
Artist: Anya Marina
Album: New Moon OST

Tabbed by: Guskya


Hi everyone!

so this is my firt tab, hope you like it! There are other versions of it on the internet 
I wanted
to find out what Anya Marina really played so I watched some videos of her performing 
and I guess
these are the right chords.


e|--------------------------------------------------------------------------------------------------|
B|--------------------------------------------------------------------------------------------------|
G|--------11-11----11-11----11-11----11------11-11----11-11----11-11---11-----3-3---3-3---3-3---3---|
D|--------------------------------------------------------------------------------------------------|
A|--------------------------------------------------------------------------------------------------|
E|--11-11-------11-------11-------11-----9-9-------9--------9--------9----2-2-----2-----2-----2-----|

intro


e|--------------------------------------------------------------------------------------------------|
B|--------------------------------------------------------------------------------------------------|
G|--------11-11----11-11----11-11----11------11-11----11-11----11-11---11-----3-3---3-3---3-3----3--|
D|--------------------------------------------------------------------------------------------------|
A|--------------------------------------------------------------------------------------------------|
E|--11-11-------11-------11-------11-----9-9-------9--------9--------9----2-2-----2-----2------2----|

-               So pretty,        so smart,       Such a waste of a young heart...


e|--------------------------------------------------------------------------------------------------|
B|--------------------------------------------------------------------------------------------------|
G|--------11-11----11-11----11-11----11------11-11----11-11----11-11---11-----3-3---3-3---3-3---3---|
D|--------------------------------------------------------------------------------------------------|
A|--------------------------------------------------------------------------------------------------|
E|--11-11-------11-------11-------11-----9-9-------9--------9--------9----2-2-----2-----2-----2-----|

-            What a pity,         what a shame,    What's the matter with you, man?


e|--------------------------------------------------------------------------------------------------|
B|--------------------------------------------------------------------------------------------------|
G|--------11-11----11-11----11-11----11------11-11----11-11----11-11---11-----8-8---7------7-7---7--|
D|--------------------------------------------------------------------------------------------------|
A|--------------------------------------------------------------------------------------------------|
E|--11-11-------11-------11-------11-----9-9-------9--------9--------9----7-7-----7----7-7-----7----|

e|--------------------------------------------------------------------------------------------------|
B|--------------------------------------------------------------------------------------------------|
G|--------11-11----11-11----11-11----11------11-11----11-11----11-11---11-----3-3---3-3---3-3---3---|
D|--------------------------------------------------------------------------------------------------|
A|--------------------------------------------------------------------------------------------------|
E|--11-11-------11-------11-------11-----9-9-------9--------9--------9----2-2-----2-----2-----2-----|

-         Don't you see it痴 wrong, can't you get it right? Out of mind and outta sight ...


e|--------------------------------------------------------------------------------------------------|
B|--------------------------------------------------------------------------------------------------|
G|--------11-11----11-11----11-11----11------11-11----11-11----11-11---11-----3-3---3-3---3-3---3---|
D|--------------------------------------------------------------------------------------------------|
A|--------------------------------------------------------------------------------------------------|
E|--11-11-------11-------11-------11-----9-9-------9--------9--------9----2-2-----2-----2-----2-----|

-         Call on all your girls, don't forget the boys, put a lid on all that noise


e|------------------------------------------------------------------------|
B|------------------------------------------------------------------------|
G|--------11-11----11-11----11-11----11------11-11----11-11----11-11---11-|
D|------------------------------------------------------------------------|
A|------------------------------------------------------------------------|
E|--11-11-------11-------11-------11-----9-9-------9--------9--------9----|

-   I知 a satellite heart,                                lost in the dark,


e|-------------------------------------------------------|
B|-------------------------------------------------------|
G|----8-8---8-8---8-8---8------8-8---8-------11-11---11--|
D|-------------------------------------------------------|
A|-------------------------------------------------------|
E|-7-7-----7-----7-----7----7-7-----7---10-10------10----|

e|--------------------------------------------------------------------------|
B|--------------------------------------------------------------------------|
G|--------11-11----11-11----11-11----11------11-11----11-11----11-11---11---|
D|--------------------------------------------------------------------------|
A|--------------------------------------------------------------------------|
E|--11-11-------11-------11-------11-----9-9-------9--------9--------9------|

-   I知 spun out so far,                                   you stop, I start,


e|----------------------------------------------------------------------------|
B|----------------------------------------------------------------------------|
G|-----8-8---8-8---8-8---8-----8-8---7-----7-7---7-----3-3---3-3---3-3----3---|
D|----------------------------------------------------------------------------|
A|----------------------------------------------------------------------------|
E|-7-7-----7-----7-----7---7-7-----7---7-7-----7---2-2-----2-----2------2-----|

-                         But I'll be true to you.

and that's it till the end ...

I hear you're living out of state, running in a whole new scene
They say i haven't slept in weeks, you're the only thing i see

I'm a satellite heart, lost in the dark
I知 spun out so far, you stop, I start
But I'll be true to you
I知 a satellite heart, lost in the dark
I知 spun out so far, you stop I start
But I'll be true to you no matter what you do, yeah I値l be true to you
Tap to rate this tab
# A B C D E F G H I J K L M N O P Q R S T U V W X Y Z