Song name
# A B C D E F G H I J K L M N O P Q R S T U V W X Y Z

Anya Marina - Whatever You Like tab

Anya Marina - Whatever You Like (Acoustic)

Standard Tuning

Intro:

e|--------------------|
B|--------------------|
G|--7----7----2----6--|
D|--------------------|
A|--5-----------------|
E|-------6----1----5--|

Use your thumb and index finger to pluck these notes

-->Guitar 1<--

Chorus/Verse:
    Dm  A# F  A
e|---------------|
B|---------------|
G|---------------|
D|--12--8--3--7--|
A|--12--8--3--7--|
E|--10--6--1--5--|

Strumming Pattern:
    Q  E Q  E E E
e|-----------------|
B|-----------------|
G|-----------------|
D|--3--X-3--3-3-3--|
A|--3--X-3--3-3-3--|
E|--1--X-1--1-1-1--|
    D  D U  U D U

Strumming Pattern is the same for all chords.

-->Guitar 2<--

Chorus/Verse
e|--------------------------------------------------------|
B|-----6--6---6-------------------------------------------|
G|--------------------------------------------------------|
D|-------------------8--8---8------3--3---3------7--7---7-|
A|-5-5------5---------------------------------------------|
E|---------------6-6------6----1-1------1----5-5------5---|

Bridge:

e|---------------|
B|---------------|
G|---------------|
D|--12--8--3--7--|
A|--12--8--3--7--|
E|--10--6--1--5--|

Single strums during bridge

LEGEND:
X - Muted
D - Down-Strum
U - Up-Strum
Q - Quarter Note
E - Eighth Note
Tap to rate this tab
# A B C D E F G H I J K L M N O P Q R S T U V W X Y Z