Song name
# A B C D E F G H I J K L M N O P Q R S T U V W X Y Z

Anya Marina - Whatever You Like tab

This is the tab for Anya Marina's cover of "Whatever You Like" off of her album 
"Whatever You Like."

-------------------------------------------------------------------------------
			     Whatever You Like - Anya Marina
-------------------------------------------------------------------------------
Tabbed by: duplex89

Tuning: Standard

Intro
       Dm        Bb        F         A
e|-----1---------1---------1---------0---------------------------------------|
B|-----3---------3---------1---------3---------------------------------------|
G|-----2---------3---------2---------3---------------------------------------|
D|-----0---------3---------3---------3---------------------------------------|
A|---------------1---------3---------0---------------------------------------|
E|-------------------------1-------------------------------------------------|

Verses and Chorus

e|---------------------------------------------------------------------------|
B|---------3---------3---------3-----------3---------3---------3-------------|
G|---------------------------------------------------------------------------|
D|---0---------0---------0---------0-----------------------------------------|
A|------------------------------------0h1---------1---------1----------------|
E|---------------------------------------------------------------------------|



e|---------------------------------------------------------------------------|
B|---------------------------------------------2-------2-------2--------2----|
G|-------------2-------2-------2-------2-------------------------------------|
D|---------------------------------------------------------------------------|
A|---1p0-----------------------------------0-------0-------0-------0---------|
E|---------1-------1-------1-------1-----------------------------------------|


The pattern repeats throughout the entire song. I hope you enjoy.

-duplex89

| /  slide up
| \  slide down
| h  hammer-on
| p  pull-off
| ~  vibrato
| +  harmonic
| x  Mute note
===============================================================================
Tap to rate this tab
# A B C D E F G H I J K L M N O P Q R S T U V W X Y Z