Song name
# A B C D E F G H I J K L M N O P Q R S T U V W X Y Z

Anya Marina - Satellite Heart tab

Standard Tuning:

e||-------------------------|-------------------------|
B||-----7-7---7-7---7-7---7-|-----7-7---7-7---7-7---7-|
G||-------------------------|-------------------------|
D||-------------------------|-------------------------|
A||-6-6-----6-----6-----6---|-4-4-----4-----4-----4---|
E||-------------------------|-------------------------|

e||-------------------------|
B||-------------------------|
G||-----3-3---3-3---3-3---3-|
D||-------------------------|
A||-------------------------|
E||-2-2-----2-----2-----2---|

Verse 1:

e||-------------------------|-------------------------|
B||-----7-7---7-7---7-7---7-|-----7-7---7-7---7-7---7-|
G||-------------------------|-------------------------|
D||-------------------------|-------------------------|
A||-6-6-----6-----6-----6---|-4-4-----4-----4-----4---|
E||-------------------------|-------------------------|

So pretty, so smart, such a waste of a young heart

e||-------------------------|
B||-------------------------|
G||-----3-3---3-3---3-3---3-|
D||-------------------------|
A||-------------------------|
E||-2-2-----2-----2-----2---|

e||-------------------------|-------------------------|
B||-----7-7---7-7---7-7---7-|-----7-7---7-7---7-7---7-|
G||-------------------------|-------------------------|
D||-------------------------|-------------------------|
A||-6-6-----6-----6-----6---|-4-4-----4-----4-----4---|
E||-------------------------|-------------------------|

What a pity, what a sham, whats the mater with you man

e||-------------------------|
B||-------------------------|
G||-----3-3---3-3---3-3---3-|
D||-------------------------|
A||-------------------------|
E||-2-2-----2-----2-----2---|
-------------------------------------------------------
e||-------------------------|-------------------------|
B||-----7-7---7-7---7-7---7-|-----7-7---7-7---7-7---7-|
G||-------------------------|-------------------------|
D||-------------------------|-------------------------|
A||-6-6-----6-----6-----6---|-4-4-----4-----4-----4---|
E||-------------------------|-------------------------|

e||-------------------------|
B||-----4-4---4-----3--3---3|
G||-------------------------|
D||-------------------------|
A||-2-2---------2-2---------|
E||-------------------------|

------------------------------------------------------

Verse 2

e||-------------------------|-------------------------|
B||-----7-7---7-7---7-7---7-|-----7-7---7-7---7-7---7-|
G||-------------------------|-------------------------|
D||-------------------------|-------------------------|
A||-6-6-----6-----6-----6---|-4-4-----4-----4-----4---|
E||-------------------------|-------------------------|

Don't you see it's... Out of mind and out of sight

e||-------------------------|
B||-------------------------|
G||-----3-3---3-3---3-3---3-|
D||-------------------------|
A||-------------------------|
E||-2-2-----2-----2-----2---|

e||-------------------------|-------------------------|
B||-----7-7---7-7---7-7---7-|-----7-7---7-7---7-7---7-|
G||-------------------------|-------------------------|
D||-------------------------|-------------------------|
A||-6-6-----6-----6-----6---|-4-4-----4-----4-----4---|
E||-------------------------|-------------------------|

Call on all your girls... Put a lid on all that noise

e||-------------------------|
B||-------------------------|
G||-----3-3---3-3---3-3---3-|
D||-------------------------|
A||-------------------------|
E||-2-2-----2-----2-----2---|

Chorus

e||-------------------------|-------------------------|
B||-----7-7---7-7---7-7---7-|-----7-7---7-7---7-7---7-|
G||-------------------------|-------------------------|
D||-------------------------|-------------------------|
A||-6-6-----6-----6-----6---|-4-4-----4-----4-----4---|
E||-------------------------|-------------------------|

I'm a satellite heart,

e||---------------------------------------------------|
B||-----4-4---4-----4--4--4----4-4--4---4-4-4-----7-7-|
G||---------------------------------------------------|
D||---------------------------------------------------|
A||-2-2---------2-2---------2-2-------2-------5-5-----|
E||---------------------------------------------------|

lost in the dark

e||-------------------------|-------------------------|
B||-----7-7---7-7---7-7---7-|-----7-7---7-7---7-7---7-|
G||-------------------------|-------------------------|
D||-------------------------|-------------------------|
A||-6-6-----6-----6-----6---|-4-4-----4-----4-----4---|
E||-------------------------|-------------------------|

I'm spun out so Far you stop

e||---------------------------------------------------|
B||-----4-4---4-----4--4--4----4-4--4---4-4-4-----3-3-|
G||---------------------------------------------------|
D||---------------------------------------------------|
A||-2-2---------2-2---------2-2-------2-------2-2-----|
E||---------------------------------------------------|

i start, But i'll be true

e||-------------------------|
B||-------------------------|
G||-----3-3---3-3---3-3---3-|
D||-------------------------|
A||-------------------------|
E||-2-2-----2-----2-----2---|

to you

-------------------------------------------------------

e||-------------------------|-------------------------|
B||-----7-7---7-7---7-7---7-|-----7-7---7-7---7-7---7-|
G||-------------------------|-------------------------|
D||-------------------------|-------------------------|
A||-6-6-----6-----6-----6---|-4-4-----4-----4-----4---|
E||-------------------------|-------------------------|

e||-------------------------|-------------------------|
B||-------------------------|-------------------------|
G||-----3-3---3-3---3-3---3-|-----3-3---3-3---3-3---3-|
D||-------------------------|-------------------------|
A||-------------------------|-------------------------|
E||-2-2-----2-----2-----2---|-2-2-----2-----2-----2---|
-------------------------------------------------------

Verse 3

e||-------------------------|-------------------------|
B||-----7-7---7-7---7-7---7-|-----7-7---7-7---7-7---7-|
G||-------------------------|-------------------------|
D||-------------------------|-------------------------|
A||-6-6-----6-----6-----6---|-4-4-----4-----4-----4---|
E||-------------------------|-------------------------|

I hear your living out... Running in a whole new

e||-------------------------|
B||-------------------------|
G||-----3-3---3-3---3-3---3-|
D||-------------------------|
A||-------------------------|
E||-2-2-----2-----2-----2---|
scene
e||-------------------------|-------------------------|
B||-----7-7---7-7---7-7---7-|-----7-7---7-7---7-7---7-|
G||-------------------------|-------------------------|
D||-------------------------|-------------------------|
A||-6-6-----6-----6-----6---|-4-4-----4-----4-----4---|
E||-------------------------|-------------------------|

you know i haven't slept.. You're the only thing

e||-------------------------|
B||-----4-4---4-----3--3---3|
G||-------------------------|
D||-------------------------|
A||-2-2---------2-2---------|
E||-------------------------|

I see

e||-------------------------|
B||-------------------------|
G||-----3-3---3-3---3-3---3-| 2x
D||-------------------------|
A||-------------------------|
E||-2-2-----2-----2-----2---|
Tap to rate this tab
 
# A B C D E F G H I J K L M N O P Q R S T U V W X Y Z