Song name
# A B C D E F G H I J K L M N O P Q R S T U V W X Y Z

Anya Marina - Miss Halfway tab

-------------------------------------------------------------------------------
			     SONG NAME - Band Name
-------------------------------------------------------------------------------
Tabbed by:Joseph Kido
Email:Jckido@gmail.com

Tuning:standard                  RIFF A
    A(bar on the 5th) B(bar on the 7th) D(bar on the 10th)  A(bar on the 5th)
e|-----5---5--------------7---7-----------------9----9-----------5---5-------|
B|---5---5---5----------7---7---7------------10---10---10------5---5---5-----|
G|-6------------------8-------------------11-----------------6---------------|X
D|---------------------------------------------------------------------------|4
A|-7------------------9-------------------12-----------------7---------------|
E|---------------------------------------------------------------------------|
ON 5th timevvvvv
e|-----5---5----------7-------------------10---------------------------------|
B|---5---5---5--------7-------------------10---------------------------------|
G|-6------------------8------------------------------------------------------|
D|--------------------9---------------------------SEE-NEXT-BAR---------------|
A|-7------------------9------------------------------------------------------|
E|---------------------------------------------------------------------------|
   A          G          F#         F       E   RIFF B 
e|---------------------------------------------------------------------------|
B|---------------------------------------------------------------------------|
G|-6----6-x---4----4-x---3----3-x---2-------1-Rhythm-not-shown---------------|x
D|-7----7-x---5----5-x---4----4-x---3-------2--------------------------------|6
A|-7----7-x---5----5-x---4----4-x---3-------2<
                        
                    
Tap to rate this tab
# A B C D E F G H I J K L M N O P Q R S T U V W X Y Z