Song name
# A B C D E F G H I J K L M N O P Q R S T U V W X Y Z

Aoi Shiori - Galileo Galilei tab

Tabbed By: Ceasar - https://www.facebook.com/ceasarruel.macam?fref=ts

Song: Galileo Galilei Finger Style(OP Song of "Ano Hana")

Tunning:  Tune your 2nd string from the top by 2 fret higher   
          Tune your 4th string from the top by 1 fret higher
           
          E
          ? - tune this string by 2 fret higher from standard tuning
          G                                     
          ? - tune this string by 1 fret higher from standard tuning
          B
          e   
                                  
Capo: 2nd Fret(You can also play this with out capo)

*Sorry i dont know what do you call this tuning.. this is also my first tab so 
dont be upset by this :D 

Intro:                                         + = harmonic

|--0-----------0-----------0----------------12-|----------19+-| 
|-----0-----0-----0-----0-----0-------------12-|------19+-----|
|--------10----------10----------10------------|--19+---------|  Repeat 2x
|----------------------------------------------|--------------|
|----------------------------------------------|--------------|
|--0-------------------------------------------|--------------|


Verse 1:
|--------------------------------------------------------------|
|--0-----0---0h2-0---------------------------------------------|
|-----0h1--------------------0---1---0------------0------------|
|--------------------4-----4-----------4----2---4---------4-4--|
|----------------0-0---0-0----------------------------------0--|
|--0-0-----0---------------------2-2----2---------5-5-5--------|

Verse 2:
|---------------------------------------------------------------|
|--0------0-0-0h2-0---------------------------------------------|
|-----0-----------------------0---1---0------------0------------|
|---------------------4-----4-----------4----2---4---------4-4--|
|-------0---------0-0---0-0----------------------------------0--|
|--0-0----------------------------2-2----2---------5-5-5--------|

Verse 3:
|---------------------------------------------------------------|
|--0------0-0-2h5-4-5---------2-2-4-5-4-2-----------------------|
|-----0-----------------------------------3-3-3---1---0--1--3---|
|---------------------------------------------------------------|
|-------0---------0---0-0-0-0-----------------------------------|
|--0-0--------------------------2---------2---5-5---5-----------|

Verse 4:
|---------------------------------------------------------------|
|---------------------------------------------------------------|
|--0-------------0-0-1-0----------------------------------------|
|--2-------2--4-----------2----4--------------------------------|
|---------------------------------------------------------------|
|--0-0-0-0---------0------------2---2-2-------------------------|

Refrain:
|-----------------------------------|
|---------5--7--5-----7--5----------|
|------------------7--------7-------|
|-----------------------------------|
|---5-5-5----------------------0--0-|
|---------5--------5--------4-4-----|

|----------------------------------------|
|---2-2-4-5-4-2--------------------------|
|-3-------------3-3--1--0---1--3---------|
|----------------------------------------|
|-------------------------0--------------|
|--=2-------------5-------------0--0-0---|

|---------------------------------------------------------|
|-----------------------2-4-5-4-2------------------0-2-0--|
|----3---------3-------3---------3-3-3--1---0--1-1--------|
|--2---------2--------------------------------------------|
|--------------0-0------2---------------------------------|
|----4-4-----------------------------5-5--5--------0------|


|----------------------------------------------12+--------|
|----------------------0---0--7----------------12+--------|
|-----3-3----3----3----5---7---8--------------------------|
|---2-----------------------------------------------------|
|-------0-0--0-0--0-0-------------------------------------|
|---------------------------------------------------------|

Chorus:

|--0-2-4---0-2-4---5-4-2-0-----0-2-4---0-2-4---5-4-2-0----|
|--0-0-0---0-0-0---0-0-0-0-----0-0-0---0-0-0---0-0-0-0----|
|---------------------------------------------------------|
|---------------------------------------------------------|
|------------------0--------------------------------------|
|--0-------0-------------------2-------2-------0----------|


|-----------0-0-----------------------------------2----------|
|------------4------------------------5-4-----------4-5-5----|
|---3-3----3----3--1-1---0----1---3----------3-3-3-----------|
|--------------------------2---------------------------------|
|-----2--------------2-2----------------4------4----4--------|
|-----------------------------5-5-----------------------0-0--|

|-------------------------------------------------------------------|
|-------------------------------------------------------------------|
|----3----0---5-3----3-3---------1--------0--------0h2--------------|
|------------------------------------------------------4------2-2---|
|-------------0----------------------------------------0------------|
|------0---------------5---------4--------2-------------------------|


Repeat Intro.
Hope you like it.
Add me on facebook: https://www.facebook.com/jerwen.pesquera
Tap to rate this tab
 
# A B C D E F G H I J K L M N O P Q R S T U V W X Y Z