Guitaretab - guitar tabs
Song name
# A B C D E F G H I J K L M N O P Q R S T U V W X Y Z

Apartment 26 - Doing It Anyway tab

BITCHIN' TABS

          URL: www.angelfire.com/goth/btab/
	EMAIL: btabmaster@hotmail.com

        THIS IS AN EXCLUSIVE TAB TO "BITCHIN' TABS"

 ----------------------------------------------------------------------------------------------

	     SONG: Doing It Anyway
	     BAND: Apartment 26
	    ALBUM: Hallucinating
   TRANSCRIBED BY: Chris Frazier (btabmaster@hotmail.com)
	     DATE: 09-02-2K1

 ----------------------------------------------------------------------------------------------

	TUNING: Drop D (D A D G B E)
[ Tab from: http://www.guitaretab.com/a/apartment-26/35975.html ]
     Riff 1:
    E|----------------------------|
    B|----------------------------|
    G|----------------------------|
    D|-0-0-0-0-3-0--0-0-0-0-3-0-5-|
    A|-0-0-0-0-3-0--0-0-0-0-3-0-5-|
    D|-0-0-0-0-3-0--0-0-0-0-3-0-5-|

     Riff 2:
    E|-----|
    B|-----|
    G|-----| PM=palm mute
    D|-0-0-|
    A|-0-0-|
    D|-0-0-|
     PM- -

     Riff 3:
    E|---------------|
    B|---------------|
    G|---------------|
    D|-0---5---3---1-|
    A|-0---5---3---1-|
    D|-0---5---3---1-|

     Riff 1:
    E|---------------------------|
    B|---------------------------|
    G|-7---7-8---12---12-13---15-|
    D|-7---7-8---12---12-13---15-|
    A|-5---5-6---10---10-11---13-|
    D|---------------------------|
Related for Doing It Anyway tab