Song name
# A B C D E F G H I J K L M N O P Q R S T U V W X Y Z

Apartment - Fall Into Place tab

I noticed that no-one had tabbed this track, so here is the main riff.
The rest of the track is fairly easy to work out if you know this part.

e|-10-------10--9-------9--5------5--7-----7-----------|
b|----10----------10---------7---------7---------------|
g|-------11----------11--------7---------7-------------|
d|-----------------------------------------------------|
a|-----------------------------------------------------|
e|-----------------------------------------------------|

e|-10-------10--12-------12--10-------10--12-------12--|
b|----12-----------12-----------12-----------12--------|
g|-------12-----------12-----------12-----------12-----|
d|-----------------------------------------------------|
a|-----------------------------------------------------|
E|-----------------------------------------------------|
Tap to rate this tab
 
# A B C D E F G H I J K L M N O P Q R S T U V W X Y Z