Song name
# A B C D E F G H I J K L M N O P Q R S T U V W X Y Z

Apartment - Fall Into Place tab

Help us improve GuitareTab! Take a short survey!
Hi all this is my version of this song. Have fun!

e|-10-------10-9-------9--------------------------|
b|----------------------10-------10-12------------|
g|---11---------11--------11----------11----------|
d|-----12-12------12-12-----12-12-------12-12-----|
a|------------------------------------------------|
e|------------------------------------------------|

e|-10-------10-12----12-10----10-12-------12------|
b|---12----------12-------12-------12-------------|
g|-----12-12-------12-------12-------12-12--------|
d|------------------------------------------------|
a|------------------------------------------------|
e|------------------------------------------------|
Related for Fall Into Place tab