Song name
# A B C D E F G H I J K L M N O P Q R S T U V W X Y Z

Apartment - Fall Into Place tab

-------------------------------------------------------------------------------
FALL INTO PLACE ~ THE APARTMENT
-------------------------------------------------------------------------------
Tabbed by: Jett M.

Information: To start, this is my first tab so I hope it helps you play this song the
way you want to. This is an amazing song and really talented, underappreciated band. I
have tabbed this intro in three different ways. The first is the notes played from the
capo, meaning that since the capo is at seven and the tab says three the actual fret being
played is ten. If youíre somebody who is confused by that, doesnít want to use a capo,
or simply doesnít have a capo then the second tab is for you. It shows the easier
versionís fret numbers from the nut, which is the base of the neck. The third version is 
the original way to play the song without a capo and based off of the base of the neck. 
Iím not
a very
good explainer so if I confused anyone then I hope you can just look at the tab and play it.

***Sorry it was difficult to show the correct timing of the notes, but it should be
pretty easy figuring out when to play them. Also, I apologize about numbers being right next
to each other, for example: 20, 77, and 97. Hopefully you are able to tell, but just in
case, theyíre two different notes played right after each other I just didnít have enough
room to space all of them out***

INTRO

Tuning: Standard

Based off of Capo ~ Capo 7th Fret
e|--3-----3-2-----2--------0-----0-3-----3-5-----5-3-----3-5----5-|
B|---0-------0------20---2--0-------5-------5-------5-------5-----|
G|----0-0-----0-0-----0-0----0-0-----5-5-----5-5-----5-5-----5-5--|
D|----------------------------------------------------------------|
A|----------------------------------------------------------------|
E|----------------------------------------------------------------|


Actual Frets ~ Capo 7th Fret
e|--10---10-9---9-------7---7-10-------10-12-------12-10-------10-12-------12-|
B|----7------7----97--9--7------12----------12----------12----------12--------|
G|-----77-----77----77----77------12-12-------12-12-------12-12-------12-12---|
D|----------------------------------------------------------------------------|
A|----------------------------------------------------------------------------|
E|----------------------------------------------------------------------------|


Original Song ~ No Capo
e|--10---10-9---9-5---5-7---7-10-------10-12-------12-10-------10-12-------12-|
B|----7------7-----7-----7------12----------12----------12----------12--------|
G|-----77-----77----77----77------12-12-------12-12-------12-12-------12-12---|
D|----------------------------------------------------------------------------|
A|----------------------------------------------------------------------------|
E|----------------------------------------------------------------------------|
Tap to rate this tab
 
# A B C D E F G H I J K L M N O P Q R S T U V W X Y Z