Song name
# A B C D E F G H I J K L M N O P Q R S T U V W X Y Z

Apathy - Idiot tab

E|-----------------------------------------------|
B|-----------------------------------------------|
G|-----------------------------------------------|
D|----2---2---2---2---2---2----------------4-4-4-| 
A|--2---2---2---3---3---3-------2---2---2--4-4-4-|
E|----------------------------3---3---3----2-2-2-|

E|-----------------------------------------------|
B|-----------------------------------------------|
G|-----------------------------------------------|
D|----2---2---2---2---2---2----------------4-4-4-|
A|--2---2---2---3---3---3-------2---2---2--4-4-4-|
E|----------------------------3---3---3----2-2-2-|

Thats it Enjoy!   
Tap to rate this tab
# A B C D E F G H I J K L M N O P Q R S T U V W X Y Z