Song name
# A B C D E F G H I J K L M N O P Q R S T U V W X Y Z

Apathy - All The Times tab

Artist: ApAtHy
TitLe: All the times
All guitar work wrote by Marc Morgan and Joe Hansford
Lyrics: By Marc Morgan


Rythem for intro n verse
d#------------------3-3-3------------------------------------------|
a#--0h1-1-1--1-1-1--3-3-3------------------------------------------|
f#--2---2-2--0-0-0--0-0-0------------------------------------------|
c#--2---2-2--2-2-2--0-0-0------------------------------------------|
g#-----------3-3-3--2-2-2------------------------------------------|
D#------------------3-3-3------------------------------------------|

Lead plays this over rythem for verse
d#---------------------------------------------------------------|
a#----5----------1-------1------1--------------------------------|
f#------5----------0-------0------0------------------------------|
c#--------7----3-------------------------------------------------|
g#-0---------2---------2------2----------------------------------|
D#-------------------3-------3-----------------------------------|

Chorus both guitars x4
d#---------------------------------------------------------------|
a#---------------------------------------------------------------|
f#-2-2-2-2-5-5-5-5----------9-9/7-7------------------------------|
c#-2-2-2-2-5-5-5-5-5-5-5-5--x-x/x-x------------------------------|
g#-0-0-0-0-3-3-3-3-5-5-5-5--7-7/5-5------------------------------|
D#-----------------3-3-3-3---------------------------------------|

all the times i tried for you
all the times i spent with you
all the times i tried for you in vein
all the times you made me feel your pain

Chorus
well fuck you i tried and tried for you
and fuck her she tried to help me through
and i cant deal with this anymore i wanna pass out on my floor

all the times you seeked attention
all the times i gave attention to you
all the times i wanted sympathy
all the times i wanted your company

Chorus

All the times i sed i loved you
All the times you sed i love you 2
all the times you lied 2 me through pain
all the times you left me stood betrayed

Chorus

Bridge verse thingy ma jig

all the times u tried for me
all the times u spent with me
all the times u tried for me in vein
all the times i made you feel my pain
Tap to rate this tab
# A B C D E F G H I J K L M N O P Q R S T U V W X Y Z