Song name
# A B C D E F G H I J K L M N O P Q R S T U V W X Y Z

Ape Fight - You Think We Suck tab

played with distortion, listen to song for timing.

[intro + verse]
e--------------------------|
B--------------------------|
G---------------------- x--|repeat heaps!
D----0---------------------|
A-2-2-2-2----0-------------|
E---------3-3-3-3-2-2------|


[solo]
e-9-4-9-4-3-3-3-3-3-4-0-9-4-9-4-11-12-11-9-7-9--------|
B-----------------------------------------------------|
G------------------------------------------------- x--|repeat aswell
D-----------------------------------------------------|
A-----------------------------------------------------|
E-----------------------------------------------------|

and thats pretty much it, the whole song is like the first bit and the solo is one of 
only different parts so enjoy...!
Tap to rate this tab
# A B C D E F G H I J K L M N O P Q R S T U V W X Y Z