Song name
# A B C D E F G H I J K L M N O P Q R S T U V W X Y Z

Apex - Walk tab

#-----------------------------------------------------------------------------#
#-- File created with Instab - http://www.pconline.com/~smcarey/instab.html --#
#-----------------------------------------------------------------------------#

Author/Artist: APEX (Ames/Carroll)
Title: Walk
Album: Carrots are Cool
Transcribed by: Peter

We are a band and this is our first song.
Give it a try it is extremely easy!
THESE ARE THE OPENING LINES

GUITAR 1
-----2-----2---------0-----0--------------------------------------|
---3-----3-----3---2-----2-----2-----0-----0----------0-----0-----|
-----------------------------------2-----2-----2----2-----2-----2-|
-0-----0-----0---0-----0-----0------------------------------------|
---------------------------------0-----0-----0----0-----0-----0---|
------------------------------------------------------------------|
 D               CHASE        SACAGAWEA        PLAY X4       CLEAN
GUITAR 2
-2-2-2--2-2-2----0-0-0--0-0-0-------------------------------------|
-3-3-3--3-3-3----2-2-2--2-2-2----0-0-0--0-0-0-----0-0-0--0-0-0----|
-2-2-2--2-2-2----2-2-2--2-2-2----2-2-2--2-2-2-----2-2-2--2-2-2----|
-0-0-0--0-0-0----0-0-0--0-0-0----2-2-2--2-2-2-----2-2-2--2-2-2----|
---------------------------------0-0-0--0-0-0-----0-0-0--0-0-0----|
------------------------------------------------------------------|
COME IN THE SECOND TIME GUITAR 1 PLAYS/PLAY X3          LIGHT DIST
Tap to rate this tab
# A B C D E F G H I J K L M N O P Q R S T U V W X Y Z