Song name
# A B C D E F G H I J K L M N O P Q R S T U V W X Y Z

Apex - Nusense tab

#-----------------------------------------------------------------------------#
#-- File created with Instab - http://www.pconline.com/~smcarey/instab.html --#
#-----------------------------------------------------------------------------#

Author/Artist: APEX Ames/Carroll
Title: Nusense
Album: Carrots are Cool
Transcribed by: Peter and Chase
what a great song
yet anothere classic by those Ames/Carroll geniuses

------------------------------------------------------------------------------|
------------------------------------------------------------------------------|
------------------------------------------------------------------------------|
------------------------------------------------------------------------------|
------------------------------------------------------------------------------|
-0-0-5-0-0-0-7-0-0-0-9-0-005-0-0-0-7-0-0-0-9-0-005-0-0-0-7-0-0-9--------------|
 Guitar #1 ^ Intro/Verse repeat untill Chorus

------------------------------------------------------------------------------|
------------------------------------------------------------------------------|
------------------------------------------------------------------------------|
------------------------------------------------------------------------------|
--------------------------------------------------------------14--------------|
-----------------------------------------------------------12-----------------|
 Guitar #2 plays this       before Chorus

---------------------------------|--------------------------------------------|
---------------------------------|--------------------------------------------|
---------------------------------|--------------------------------------------|
---------------------------------|--------------------------------------------|
---11---9---7----14---11---9---7-|--------------------------------------------|
-9----7---5---12----8----7---5---|--------------------------------------------|


--0---00000-----000000-------0-----------0------------------------------------|
--0---00000-----000000-------0-----------0------------------------------------|
--3---33333-----222222-------3-----------2------------------------------------|
--2---22222-----222222-------2-----------2------------------------------------|
--2---22222-----000000-------2-----------0------------------------------------|
--0---00000-----000000-------0-----------0------------------------------------|
 Guitar #1 plays this for chorus,5strums per chord (E, A5)            o

------------------------------------------------------------------------------|
------------------------------------------------------------------------------|
------------------------------------------------------------------------------|
------------------------------------------------------------------------------|
--14------------11-----------9-----------7------------------------------------|
--12------------9------------7-----------5------------------------------------|
 Guitar 2  strum7times per chord

--0--------------------0------------------------------------------------------|
--0--------------------0------------------------------------------------------|
--3--------------------2------------------------------------------------------|
--2--------------------2------------------------------------------------------|
--2--------------------0------------------------------------------------------|
--0--------------------0------------------------------------------------------|
 guitar 1 background for solo (same as chorus)

--------------------------------------------------------------12--15----------|
--------------------------------------------------------------12--15----------|
--------------------------------------------------------------12--14----------|
--------------------------------------------------------------12--14----------|
--------------------------------------------------------------12--14----------|
--------------------------------------------------------------12--15----------|
 Guiatr 2 The key here is to imporvise I usually play between here ^
Tap to rate this tab
# A B C D E F G H I J K L M N O P Q R S T U V W X Y Z