Aphex Twin - Ageispolis tab

-------------------------------------------------------------------------------
			     Ageispolis - Aphex Twin
-------------------------------------------------------------------------------
Tabbed by: yomothainlaw
Email: godsmokiefan@gmail.com

Tuning:Standard (EADGBe)
Main melody made by the 'popcorn'-esque sounds that repeats throughout the song. Play 
quick notes with lots of reverb.

e|---20---18---16------18--20-----------------16-18---18-16---18--16---------|
B|:----------------------------18---18----18---------------------------------|
G|:--------------------------------------------------------------------------|
D|:--------------------------------------------------------------------------|
A|:--------------------------------------------------------------------------|
E|---------------------------------------------------------------------------|

e|---18--16------------------------------------------------------------------|
B|-----------18--16---------16--18--16---------------------------------------|
G|------------------------------------------------------------------15--17---|
D|--------------------------------------------------------15----18-----------|
A|---------------------------------------------------------------------------|
E|---------------------------------------------------------------------------|

e|---------------------------------------------------------------------------|
B|-----------------------------------------------------16---18--16-----------|
G|---17--15--17----------15---17--15--------17-----17---------------17-------|
D|---------------------------------------------------------------------------|
A|---------------------------------------------------------------------------|
E|---------------------------------------------------------------------------|

e|-----------------------------------------16------16------18--18----16------|
B|---16------16-------------18---18---18-------18-------------------------18-|
G|-------17------------------------------------------------------------------|
D|---------------------------------------------------------------------------|
A|---------------------------------------------------------------------------|
E|---------------------------------------------------------------------------|

e|---------------------------------------------------------------------------|
B|----------------16---18----------------18---16-16---18-----------------16--|
G|----15---17--------------------------------------------------17---17-------|
D|---------------------------------------------------------------------------|
A|---------------------------------------------------------------------------|
E|---------------------------------------------------------------------------|

e|---------------------------------------------------------------------------|
B|--------------------------------------------------------------------------:|
G|-------------------15---17------------------------------------------------:|
D|--------15---18------------------------------------15---------------------:|
A|----------------------------15--15-------15---18--------------------------:|
E|---------------------------------------------------------------------------|
Tap to rate this tab
 
# A B C D E F G H I J K L M N O P Q R S T U V W X Y Z