Song name
# A B C D E F G H I J K L M N O P Q R S T U V W X Y Z

Apit - Memang Khilafku tab

|--7-5-3-5-7-8-10-8-7-8----|----5-3-2-3-5-7-8-7-5-7------|---3-2-0-2-3-5-7-5-3-5---2-2--7-5-3-2---|
|--------------------------|-----------------------------|--------------------------------------5-|
|--------------------------|-----------------------------|----------------------------------------|
|--------------------------|-----------------------------|----------------------------------------|
|--------------------------|-----------------------------|----------------------------------------|
|--------------------------|-----------------------------|----------------------------------------|

|--7--7-8-10-8-7-----------|----5--5-7-5-5-7-8-7-5-3-----|---3-5-3-3--5-7-5-3-5---2-2--7-5-3-2----|
|-----------------10-------|-----------------------------|--------------------------------------5-|
|--------------------------|-----------------------------|----------------------------------------|
|--------------------------|-----------------------------|----------------------------------------|
|--------------------------|-----------------------------|----------------------------------------|
|--------------------------|-----------------------------|----------------------------------------|
Tap to rate this tab
# A B C D E F G H I J K L M N O P Q R S T U V W X Y Z