Song name
# A B C D E F G H I J K L M N O P Q R S T U V W X Y Z

Apocalypse Hoboken - Considerate Suicide tab

-----------------------------------------------------------------------------
                             Considerate Suicide - Apocalypse Hoboken
-----------------------------------------------------------------------------
Tabbed by:D. Fuller
E-mail:heyironhead@gmail.com

Tuning:


Intro
e|---------------------------------|
b|---------------------------------|
G|---------------------------------|
D|5-5-5-555------------------------|
A|3-3-3-333333-555-----------------|
E|---------111-333-----------------|

Verse
e|---------------------------------|
b|---------------------------------|
G|---------------------------------|
D|55555555-------------------------|
A|3333333333335555-----------------|
E|--------11113333-----------------|

Riff
e|---------------------------------|
b|---------------------------------|
G|---------------------------------|
D|---------7-5-3-5-3---------------|
A|7-5-7-575----------5-------------|
E|---------------------------------|

Bridge
e|----------------------------------|
b|----------------------------------|
G|----------------------------------|
D|5---7---9--10101010-5---7---9--10-|
A|3---5---7--8-8-8-8--3---5---7--8--|
E|----------------------------------|

Last Note
e|---------------------------------|
b|---------------------------------|
G|---------------------------------|
D|5--------------------------------|
A|3--------------------------------|
E|---------------------------------|


Intro x2
Verse x4
Riff x2
Verse x4
Riff x2
Bridge x1
Verse x4
Riff x2
Last note 
Tap to rate this tab
# A B C D E F G H I J K L M N O P Q R S T U V W X Y Z